Oops, an error
Loading. Please wait.

Remain Me Bass Tab

164 views 1 this week
no commentswrite comment
1 2 3 4 5
please rate
add to favorites
launch autoscroll
font size
0
reset
guitar tuner
Autoscroll
slow
fast
+/-
esc
set tempo
stop
Help us to improve Ultimate-Guitar.com Take our survey!
×
Author
Link to the bands web page:http://mayofsorrow.com.ua/

G|------------------------------------------------------------------------|
D|------------------------------------------------------------------------|
A|------------------------------------------------------------------------|
E|-1/9\1-8-88-88-88-8888-6-66-66-66-6666-4-44-44-44-4444-3~33333-55556666-|
B|------------------------------------------------------------------------|

G|------------------------------------------------------------------|
D|------------------------------------------------------------------|
A|------------------------------------------------------------------|
E|-8-88-88-88-8888-6-66-66-66-6666-4-44-44-44-4444-3~33333-55556666-|
B|------------------------------------------------------------------|

G|---------------------------------------------------------------|
D|---------------------------------------------------------------|
A|---------------------------------------------------------------|
E|-8888888-88-8888-6666666-66-6666-4-44-44-44-4444-33-33-33-3333-|
B|---------------------------------------------------------------|

0:27
G|--------------------------------|
D|o------10-----6------8---------o|
A|----10------6------8-----6---8--|
E|o-8-------4------6-----4---6---o|
B|--------------------------------|

0:45
G|------------------------------------------------------------------------|
D|o----------------------------------------------------------------------o|
A|------------------------------------------------------------------------|
E|o-8888888-88888~-4444444-44444~-6666666-66666~-444444444~4-666666666~6-o|
B|------------------------------------------------------------------------|

1:02
G|------------------------------------|-------------------|
D|o----------------------------------o|-------------------|
A|------------------------------------|-------------------|
E|o-4(x16)-6(x16)-------3----------3-o|-4(x16)-6(x15)/9\6-|
B|----------------1-1-1---1111-111----|-------------------|

1:24
G|------------------------------------------|---------------|
D|o----------------------------------------o|---------------|
A|------------------------------------------|---------------|
E|o----------6-66-667-8-810-10105-4-44-810-o|---------1/9\1-|
B|--4-44-44---------------------------------|-1~~~1~~~------|

1:46
G|--------------------------------|
D|o------10-----6------8---------o|
A|----10------6------8-----6---8--|
E|o-8-------4------6-----4---6---o|
B|--------------------------------|

2:04
G|------------------------------------------------------------------------|
D|o----------------------------------------------------------------------o|
A|------------------------------------------------------------------------|
E|o-8888888-88888~-4444444-44444~-6666666-66666~-444444444~4-666666666~6-o|
B|------------------------------------------------------------------------|

2:21
G|------------------------------------|------------------|
D|o----------------------------------o|------------------|
A|------------------------------------|------------------|
E|o-4(x16)-6(x16)-------3----------3-o|-4(x16)-6(x15)-9\-|
B|----------------1-1-1---1111-111----|------------------|

2:43
G|-------------------------------------------------------|
D|------------------8h1053-5---------86------------------|
A|------------------------3---------6--6-6---------------|
E|-----3--6h8--6--------------44-44-----4--4(x8)-6(x16)--|
B|-11-1---------1----------------------------------------|

3:00
G|------------------------------------------|
D|o----------------------------------------o|
A|------------------------------------------|
E|o----------6-66-667-8-810-10105-4-44-810-o|
B|--4-44-44---------------------------------|

3:18
G|---------------------------------------------|
D|o-------------------------------------------o|
A|---------------------------------------------|
E|o-8-8-8-----------8-8-8---------------------o|
B|--------1~-1(x16)-------1~-5555444433336666--|

3:36
G|-----------------------------------------------------------------------------|
D|-----------------------------------------------------------------------------|
A|-----------------------------------------------------------------------------|
E|-8(x16)--6(x16)--4(x16)--3(x8)-44-666-8(x16)--6(x16)--4(x16)--3(x8)-44446666-|
B|-----------------------------------------------------------------------------|

3:53
G|------------------------------------------------------|
D|------------------------------------------------------|
A|------------------------------------------------------|
E|----86~4~3~46-----86~6~64~4~43~46------6~6~64~4~43~46-|
B|-1~-----------1~1~----------------1~1~1---------------|

4:19
G|----------------------------------|
D|----------------------------------|
A|----------------------------------|
E|---------6(x16)--4(x16)--3\---/9\-|
B|-1(x16)---------------------------|

4:28
G|------------------------------------------|
D|o----------------------------------------o|
A|------------------------------------------|
E|o----------6-66-667-8-810-10105-4-44-810-o|
B|--4-44-44---------------------------------|

4:45
G|-------------------------------------------------------------|
D|-------------------------------------------------------------|
A|-------------------------------------------------------------|
E|------6-6-6-6~-8~~~4~~~-----6-6-6-6~-8-8-8-8~-4-4-4-4~-------|
B|-4~~~------------------4~~~----------------------------4~~~~-|
Tabbed by Dave Vucko
Suggest correction
What's this?
You can suggest a correction to this tab. Community and Mods will review your correction and vote to approve or reject it.
comments
We did not receive enough feedback on this tab! Please rate:
print report bad tab
1 2 3 4 5
guest
You may want to rate the tab now too:
select rating
Please do not post tabs as comments. Select "correction" instead!