Oops, an error
Loading. Please wait.

Ojitos De Turqueza Tab

11 views 1 this week
no commentswrite comment
1 2 3 4 5
3 more votes to show rating
add to favorites
launch autoscroll
font size
0
reset
how to read this tab
guitar tuner
×
Best way to learn
"Ojitos De Turqueza"
Autoscroll
slow
fast
+/-
esc
set tempo
stop
Muchas veces vivimos aferrados a algo y pensamos que la felicidad
está solo ahí...... Creo que ser valientes y mirar adelante con
optimismo es la mejor solución.

Esta bonita canción va dedicada para toda la gente que quiere
mejorar en muchos sentidos... Pero en especial para una amiga
que esta en el cielo ; por la cual sentí muchas cosas bonitas
y también extraño un montón.
Para la chiquita de los casetts: Lili Fiorella
Donde quiera que te encuentres.

ESTE ES EL PIQUEO DEL CHARANGUITO ADAPTADO PARA GUITARRA
SE REPITE TODO DOS VECES:

INTRO:
1)---12-12--12--12----12-12--12--12--
2)-14-----14--14----12-----12--12----
3)-----------------------------------
4)-----------------------------------

1)-17-17--12--12-12/14----
2)------14--14--------14--
3)------------------------
4)------------------------

1)---12-12--12--12----12-12--12--12--
2)-14-----14--14----12-----12--12----
3)-----------------------------------
4)-----------------------------------

1)-17-17--12----16-16--12----14-14--12--12-14--
2)------14--14-------14--14-------14--14-------
3)---------------------------------------------
4)---------------------------------------------

Y ESTA ES LA PARTE DE LA ZAMPOÑA TAMBIEN ADAPTADA PARA GUITARRA:

1)-------------------------------------------------
2)-------------------------------------------------
3)-------------2------------------------2----------
4)-2/4-2-0-2-4---2-2--------2/4-2-0-2-4---2-2------
5)-------------------5-4----------------------5-4--
6)-------------------------------------------------

1)-------------5----------------------
2)-5/7-5-3-5-7-7-5-5-3-2--------------
3)-6/7-6-4-6-7---6-6-4-2--------------
4)------------------------------------
5)------------------------------------
6)------------------------------------

1)---0-0-0-0-----0-0-0-0---5-5-4-4-2--
2)-2-2-2-2-2---0-0-0-0-0---7-7-5-5-2--
3)-2-----------1----------------------
4)------------------------------------
5)------------------------------------
6)------------------------------------

[ch]D            [ch]A[/ch]        MI[/ch]
Agonizando está mi corazón
[ch]D              [ch]A[/ch]        MI[/ch]
por esos ojitos de turqueza
[ch]D                [ch]A[/ch]     MI[/ch]
cómo las olas del titicaca
                                   !
[ch]A[/ch]             [ch]E[/ch]                  !
Con mis manos sobre tu cuerpo      ! en esta parte la Re. y la
[ch]D.      [ch]E.     FA#m[/ch]              ! MI[/ch].  Puden hacerce normal.
t E    A D o r a r é               ! Pero suena mucho mejor si
La                                 ! hacemos estas notas en las
toda la vida despues de la muerte  ! posiciones intermedias.
[ch]D.            [ch]E[/ch].           FA#m[/ch]  !           :)
s i é m p r e    t e    a m a r é  !
                                   !
                                   !
                                   !

ESTA PARTE SE REPITE TODO DOS VECES:

1)-2-4-5-4-2-2-2---0-2-4-2-0-0-0---5-5-4-4-2--
2)---------------------------------7-7-5-5-2--
3)--------------------------------------------
4)--------------------------------------------
5)--------------------------------------------
6)--------------------------------------------

1)-------------5--------------------------5-4----
2)-5/7-5-3-5-7-7-5-5-3-2----5/7-7-5-3-5-7-7-5----
3)-6/7-6-4-6-7---6-6-4-2----6/7-7-6-4-6-7--------
4)-----------------------------------------------
5)-----------------------------------------------
6)-----------------------------------------------

Y DESPUES VIENE EL INTRO y LA PARTE DE LA ZAMPOÑA.
SE VUEVE A REPETIR LAS LETRAS Y ESO ES TODO ... :)


Bueno eso es todo. Espero que esta transcripcion les sea útil
cualquier duda, comentario, o cosas asi  pueden escribir a mi
correo.

Reciban un saludo desde la ciudad de los vientos JULIACA-PERU
                        Junio del 2006.
Suggest correction
Give kudos to tab author, rate the tab!
1 2 3 4 5
comments
print report bad tab
guest
You may want to rate the tab now too:
select rating
Wanna post a correction for this tab? Suggest correction