Oops, an error
Loading. Please wait.

Misery (Without Drums) Drum Tab

839 views 1 this week
no commentswrite comment
1 2 3 4 5
3 more votes to show rating
add to favorites
launch autoscroll
font size
0
reset
guitar tuner
Autoscroll
slow
fast
+/-
esc
set tempo
stop
Help us to improve Ultimate-Guitar.com Take our survey!
×
Author
Bassist: Alexander Milov

Main Intro: No Bass...
Intro: bass starts when guitar play intro 2nd time with:
|--------------|
|--------------|
|-5--6-------|
|---------6--h6-|

Intro 2:
|------------------------------------------|
|---5-3--------8-6-------------------------|
|-3-----3~--6-----6~----8-6-----5---------|
|----------------------6-----6~----6--4-h6-|

Verse:
|------------------------------------------------|
|---5-3----------8-6-----------------------------|
|-3-----3--33-6-----6--66---8-6-------5---------|
|--------------------------6-----6--66---6--4-h6-|

Chorus:
|---------2-----------------|
|---2---33-3*---4-----------|
|-33-3*-------55-5*---5-----|
|-------------------66-6*-4-|

Interlude:
|---------------------------------------|
|---------------------------------------|
|-3---5---6---8---6h7h8p6---6h7h8p6-|
|---------------------------------------|

Interlude 2:
|------------------------------------------------|
|---42*--------75*-------------------------------|
|-33----333--66----666----75*------4-------------|
|-----------------------66----666---6*-5-6h-7h-6-|

Main Intro: no bass
Intro:       x1
Intro 2:     x2
Verse:       x4
Chorus:      x2
Verse:       x4
Chorus:      x2
Interlude:   x2
Interlude 2: x2 
Chorus:      x4
Intro 2:     x1
Intro:       x1


			Enjoy!!

						by Alexander Milov   (c)2001
	
Suggest correction
Give kudos to tab author, rate the tab!
1 2 3 4 5
comments
print report bad tab
guest
You may want to rate the tab now too:
select rating
Wanna post a correction for this tab? Suggest correction