Oops, an error
Loading. Please wait.

12 Through 15 Tab

version 1
version 1

Whole song

Interactive

4,147 views 18 this week
4 commentsread comments
1 2 3 4 5
excellent!
x 5
add to favorites
launch autoscroll
font size
0
reset
how to read this tab
guitar tuner
Autoscroll
slow
fast
+/-
esc
set tempo
stop
Help us to improve Ultimate-Guitar.com Take our survey!
×
Author
Difficulty
Capo
novice
1st fret
Rhythm Guitar(Capo 1st Fret).
Lead Guitar(No Capo)

Intro =

E|-----------------------------------------------------------|
B|-8h9-8------------------8h9-8----------8h9-8------13~---9~-|
G|-------10-8-10~-8~-10~--------10-8-----------10-8----------|
D|-----------------------------------10~---------------------|
A|-----------------------------------------------------------|
E|-----------------------------------------------------------|

E|----------------|
B|-8h9-8----------|
G|-------10-8-----|
D|------------10~-|
A|----------------|
E|----------------|

Verse = 

E|-----------------------------------------------------------|
B|-13~--------------9~---------------------------------------|
G|--------------------------------------------10*10*10*10*10*|
D|-----------------------------------------------------------|
A|-----------------------------------------------------------|
E|-----------------------------------------------------------|

E|-----------------------------------------------------------|
B|-----------------------------------------------------------|
G|10*10*10*10*10*10*10*10*10*10*6*6*6*6*6*6*6*6*5*5*5*5*5*5*5|
D|-----------------------------------------------------------|
A|-----------------------------------------------------------|
E|-----------------------------------------------------------|

E|-----------------------------------------------------------|
B|-----------------------------------------------------------|
G|*5*10*10*10*10*10*10*10*10*10*10*10*10*10*10*10*6*6*6*6*6*6|
D|-----------------------------------------------------------|
A|-----------------------------------------------------------|
E|-----------------------------------------------------------|

E|------------------------------------|
B|------------------------------------|
G|*6*6*15*15*15*15*15*12*12*12*12*12*-|
D|------------------------------------|
A|------------------------------------|
E|------------------------------------|

Pre Chorus = 

E|--11---11---11---11---11---11---4---4---4---6---6---6-|
B|9----9----9----9----9----9----2---2---2---4---4---4---|
G|------------------------------------------------------|(x2)
D|------------------------------------------------------|
A|------------------------------------------------------|
E|------------------------------------------------------|

Chorus = 

G
We’re taking this easy             
D
Cause darling, that's what dreams are 
Am
made of, This story is probably 
C
made up
D
So why don't you go back to sleep?

E|---------------------------------|
B|-8h9-8---------------------------|
G|-------10-8-10~-8~-10~-----------|
D|-----------------------11-11-10b-|
A|---------------------------------|
E|---------------------------------|
Verse 2 = 
E|-----------------------------|
B|-13~--------------9~---------|
G|-----------------------------|
D|-----------------------------|
A|-----------------------------|
E|-----------------------------|

Return To Pre Chorus

Chorus = 

G
We’re taking this easy             
D
Cause darling, that's what dreams are 
Am
made of, This story is probably 
C
made up
D
So why don't you go back to sleep?
G                                                     D
(Just like you never could) why don't you dream about me?
Am
(Just like you always should) 'cause I'm the reason you're alone now
C
Quit blaming everything on your hometown
D
Why would you say that?

Bridge = 

E|-----------------------------------------------------------|
B|-----------------------------------------------------------|
G(10*(x22)-10~)10*10*10*10*6*6*6*6*8*8*8*8*8*8*8*8*8*8*5*5*5*|
D|-----------------------------------------------------------|
A|-----------------------------------------------------------|
E|-----------------------------------------------------------|

E|--------------------------|
B|--------------------------|
G|5*5*5*5*5*6*6*6*6*6*6*6*6*|(x4)
D|--------------------------|
A|--------------------------|
E|--------------------------|

Chorus = 

G
We’re taking this easy             
D
Cause darling, that's what dreams are 
Am
made of, This story is probably 
C
made up
D
So why don't you go back to sleep?
G                                                     D
(Just like you never could) why don't you dream about me?
Am
(Just like you always should) 'cause I'm the reason you're alone now
C
Quit blaming everything on your hometown
D
Why would you say that?

Outro = 

E|---------------------------------|
B|-8h9-8---------------------------|
G|-------10-8-10~-8~-10~-----------|
D|-----------------------11-11-10b-|
A|---------------------------------|
E|---------------------------------|
Suggest correction
comments
print report bad tab
4 comments total. Showing first comments.
0 reply
legit123 10 wrote on April 30 2015, 01:39 pm

what does * mean thank you for the tab though so far it seems on point :)

0 reply
jeffrey.rampt 380 wrote on August 13 2016, 02:38 pm

the * means palm mute

0 reply
awwatford 10 wrote on January 10 2016, 07:19 pm, edited at 07:22 pm

this tab is pretty good, except the capo is not on the first fret (except for the chorus), and the pre-chorus sounds off. However, I don't know how to fix it, so I'm just being nitpicky.

guest
You may want to rate the tab now too:
select rating
Please do not post tabs as comments. Select "correction" instead!