Oops, an error
Loading. Please wait.

Angels Tab

version 1
version 1

Intro

Whole song

Interactive

16,649 views 75 this week
2 commentsread comments
1 2 3 4 5
excellent!
x 21
add to favorites
launch autoscroll
font size
0
reset
how to read this tab
guitar tuner
Autoscroll
slow
fast
+/-
esc
set tempo
stop
Help us to improve Ultimate-Guitar.com Take our survey!
×
Author
Difficulty
novice
-----------------------------------------------------------------------------
                          Angels - Mayday Parade
-----------------------------------------------------------------------------
Tabbed by: Andrew Lim (Drew)
E-mail: AcerUser95@hotmail.com

Tuning:Standard No Capo

^=Harmonics
h=Hammer-on

e|----2---0-2-----2---------------------------------------------------------|
B|------3-----3-----3--0h2-3-------------------3---------------3-----------2|
G|---------------------------2-4-----2-----2h4---4-2---------4---4-------2--|
D|--0-----------0----------------0-----0-------------0-----4-------4---2----|
A|---------------------0-----------0-----0-------------0-2-----------0------|
E|--------------------------------------------------------------------------|

e|---------2-0-2------------------------------------------------------------|
B|---------------3--7^------------------------------------------------------|
G|-2-----2----------7^------------------------------------------------------|
D|---2-0--------------------------------------------------------------------|
A|--------------------------------------------------------------------------|
E|--------------------------------------------------------------------------|
Suggest correction
comments
print report bad tab
2 comments total.
+3 reply
AustinKargl 10 wrote on February 6 2014, 10:01 am

e|----2---0-2-----2---------------------------------------------------------|
B|------3-----3-----3--0h2-3-------------------3---------------3-----------2|
G|---------------------------2-4-----2-----2h4---4-2---------0---0-------2--|
D|--0-----------0----------------0-----0-------------0-----4-------4---2----|
A|---------------------0-----------0-----0-------------0-2-----------0------|
E|--------------------------------------------------------------------------|

e|---------2-0-2------------------------------------------------------------|
B|---------------3--7^------------------------------------------------------|
G|-2-----2----------7^------------------------------------------------------|
D|---2-0--------------------------------------------------------------------|
A|--------------------------------------------------------------------------|
E|--------------------------------------------------------------------------|

0 reply
AustinKargl 10 wrote on February 6 2014, 10:02 am

Well, I clicked correction, but apparently it put it as a comment anyways. Oh well :P

guest
You may want to rate the tab now too:
select rating
Wanna post a correction for this tab? Suggest correction