Oops, an error
Loading. Please wait.

Angels Tab

version 2
version 2

Intro

Whole song

  • There aren't many tabs or chords of this song to c... Show more

Interactive

653 views 3 this week
no commentswrite comment
1 2 3 4 5
3 more votes to show rating
add to favorites
launch autoscroll
font size
0
reset
how to read this tab
guitar tuner
Autoscroll
slow
fast
+/-
esc
set tempo
stop
Help us to improve Ultimate-Guitar.com Take our survey!
×
Author
-------------------------------------------------------------------------------
                                Angels - Mayday Parade
-------------------------------------------------------------------------------
Tabbed by: Branden Hoy
E-mail: branden_hoy@yahoo.com

Tuning: Standard

This is my first tab so if you have any corrections, 
comments or questions feel free to post down below or email me.
This is the intro that plays until 1:27. 
The rest of the song is basically chords.
Enjoy.


e|--2---0-2-----2-----------------------------------|
B|----3-----3-----3-2-3-------------------3---------|
G|----------------------2-4-----2-----2/4---4-2-----|
D|0-----------0-----0-------0-----0-------------0---|
A|----------------------------0-----0-------------0-|
E|--------------------------------------------------|

e|----------------------------2-0-2------|
B|------3-----------2---------------3-7*-|
G|----0---0-------2---2-----2---------7*-|
D|--4-------4---2-------2-0--------------|
A|2-----------0--------------------------|
E|---------------------------------------|

e|2-----0-2---2-----0-2---------------------0-2---|
B|--3-------3---3-------3-----------------------3-|
G|------------------------4-----2-----2-----------|
D|----0-----------0---------0-----0-----0---------|
A|----------------------------0-----0-----0-------|
E|------------------------------------------------|

e|------------------------------------------|
B|------3-----------------2-----0-----0-2---|
G|----0---0---(x2)------2---2-----2-------2-|
D|--4-------4---------2-------2-----2-------|
A|2-----------------0-----------------------|
E|------------------------------------------|

e|--2---0-2---2-----0-2---------------------0-2---|
B|----3-----3---3-------3-----------------------3-|
G|------------------------4-----2-----2-----------|
D|0---------------0---------0-----0-----0---------|
A|----------------------------0-----0-----0-------|
E|------------------------------------------------|

e|------------------------------------------|
B|------3-----------------2-----3-----2-----|
G|----0---0---(x2)------2---2-----2-----2---|
D|--4-------4---------2-------2-----2-----2-|
A|2-----------------0-----------------------|
E|------------------------------------------|

e|---------------------------------------|
B|------0-----------2-----------0-----2~-|
G|----0---0-------0---0-------0---0---2~-|
D|--4-------4---4-------4---4-------4----|
A|---------------------------------------|
E|0-----------2-----------3--------------|

e|------2-----0---------0-------------------------|
B|----3---3-----3---2-3---------3-----2-----0-2-0-|
G|--2-------2-----2-----------2---2-----2---------|
D|0-------------------------2-------2-----2-------|
A|------------------------0-----------------------|
E|------------------------------------------------|

e|----------------------------------|
B|------3------------------0-----2~-|
G|----0---0----(x2)------0---0---2~-|
D|--4-------4------------------0-2~-|
A|2--------------------2------------|
E|-------------------3--------------|

e|2---2-0-2---2---2-0-2---------------------------|
B|--3-------3---3-------3-------------------------|
G|------------------------------4-----------4-----|
D|0-----------0---------------0---0-------0---0---|
A|--------------------------2-------2---2-------2-|
E|------------------------3-----------3-----------|

e|--------------------------------------|
B|------3-----------3-----------2-------|
G|----4---4-------4---4-------2---2-----|
D|--0-------0---0-------0---2-------2---|
A|2-----------2-----------0-----------0-|
E|--------------------------------------|




************************************

| /   slide up
| \   slide down
| h   hammer-on
| p   pull-off
| ~   vibrato
| *   harmonic
| x   Mute note
| b   Bend
| pb  Pre-bend
| br  Bend release
| pbr Pre-bend release
| brb Bend release bend

************************************
Suggest correction
Give kudos to tab author, rate the tab!
1 2 3 4 5
comments
print report bad tab
guest
You may want to rate the tab now too:
select rating
Wanna post a correction for this tab? Suggest correction