Oops, an error
Loading. Please wait.

Angels Tab

version 1
version 1

Whole song

Interactive

12,790 views 66 this week
5 commentsread comments
1 2 3 4 5
excellent!
x 19
add to favorites
launch autoscroll
font size
0
reset
how to read this tab
guitar tuner
Autoscroll
slow
fast
+/-
esc
set tempo
stop
Help us to improve Ultimate-Guitar.com Take our survey!
×
Author
Difficulty
novice
-----------------------------------------------------------------------------
                          Angels - Mayday Parade
-----------------------------------------------------------------------------
Tabbed by: Andrew Lim (Drew)
E-mail: AcerUser95@hotmail.com

Tuning: Standard No Capo

Chords: D  xx0232
        A  x02220
        G  300033
        Bm x24432
        ?  222230

^= Harmonics
h= Hammer-on

e|----2---0-2-----2---------------------------------------------------------|
B|------3-----3-----3--2h3---------------------3---------------3-----------2|
G|---------------------------2-4-----2-----2h4---4-2---------0---0-------2--|
D|--0-----------0----------------0-----0-------------0-----4-------4---2----|
A|---------------------0-----------0-----0-------------0-2-----------0------|
E|--------------------------------------------------------------------------|

e|---------2-0-2--------2-----0-2---2-----0-2---------------------0h2-------|
B|---------------3--7^----3-------3---3-------------------------------3-----|
G|-2-----2----------7^------2-----------2-------4-----2-----2---------------|
D|---2-0----------------0-----------0---------4---0-----0-----0-------------|
A|--------------------------------------------------0-----0-----0-----------|
E|--------------------------------------------------------------------------|

e|-------------------------------------------------2-----0-2---2-----0-2----|
B|-------3-----------3-----------2-----0-----0h2-----3-------3---3----------|
G|-----0---0-------0---0-------2---2-----2-------2-----2-----------2--------|
D|---4-------4---4-------4---2-------2-----2-------0-----------0------------|
A|-2-----------2-----------0------------------------------------------------|
E|--------------------------------------------------------------------------|

e|---------------------0h2--------------------------------------------------|
B|-------------------------3-------3-----------3-----------2-----3-----2----|
G|---4-----2-----2---------------0---0-------0---0-------2---2-----2-----2--|
D|-4---0-----0-----0-----------4-------4---4-------4---2-------2-----2-----2|
A|-------0-----0-----0-------2-----------2-----------0----------------------|
E|--------------------------------------------------------------------------|

e|-------------------------------------0-------2-----0---------0------------|
B|-------0-----------2-----------0-----2-----3---3-----3---2h3---------3----|
G|-----0---0-------2---2-------0---0---2---2-------2-----2-----------2---2--|
D|---2-------2---4-------4---0-------0-2-0-------------------------2-------2|
A|-------------------------------------0-------------------------0----------|
E|-0-----------2-----------3------------------------------------------------|

e|-------------------------------------------------0-2-----0-2---2-----0-2--|
B|-2-----0-2-0-------3-----------3-----------0-----2---3-------3---3-------3|
G|---2-------------0---0-------0---0-------0---0---2-----2-----------2------|
D|-----2---------4-------4---4-------4---0-------0-2-0-----------0----------|
A|-------------2-----------2-----------------------0------------------------|
E|-------------------------------------3------------------------------------|

e|-------------------------------------------------------------0-----0-2----|
B|-------------------------------3-----------3-----------2-------3-------3--|
G|-------4-----------4---------0---0-------0---0-------2---2-------2--------|
D|-----0---0-------0---0-----0-------0---0-------0---2-------2-2------------|
A|---2-------2---2-------2-2-----------2-----------0------------------------|
E|-3-----------3------------------------------------------------------------|

e|-2-----0-2----------------------------------------------------------------|
B|---3-------3-------------------------------3-----------3-----------2------|
G|-----2-------------4-----------4---------0---0-------0---0-------2---2----|
D|-0---------------0---0-------0---0-----0-------0---0-------0---2-------2--|
A|---------------2-------2---2-------2-2-----------2-----------0------------|
E|-------------3-----------3------------------------------------------------|

e|-------------------------------------------------0------------------------|
B|-3-----2-----------0-----------------------0-----2------------------------|
G|---2-----2-------0---0---------2---------0---0---2------------------------|
D|-----2-----2---2-------2-----2---2-----0-------0-2------------------------|
A|---------------------------4-------4-------------0------------------------|
E|-------------0-----------2-----------3------------------------------------|

D        A
I can't breathe,
                      Bm
After all that you've told me,
            G                 A
You took my heart and made me melt again.
D       Bm
I can't breathe,
                      ?
After all that you've told me
            G                 A
You took my heart and made me melt again.
            G                                            Bm
I put your picture in a frame to stand at the side of my bed
       A                      G
So whenever I get sad I can stare at your face
G                             Bm  A
Not overplayed that I won't forget
                          G                        A
When all I remember is talking is cheap and your eyes were expensive
      G                        A
And god only knows when I'll come to my senses
    G         A         Bm
Now I can't breathe at all (now I can't breathe at all)

e|---------------------------------------0----------------------------------|
B|---------------------------------0-----2----------------------------------|
G|-------0-----------2-----------0---0---2----------------------------------|
D|-----2---2-------2---2-------0-------0-2----------------------------------|
A|---2-------2---4-------4---------------0----------------------------------|
E|-0-----------2-----------2-3----------------------------------------------|

D        A
I can't breathe,
                      Bm
After all that you've told me,
            G                 A
You took my heart and made me melt again.

D        A
I can't breathe,
                      Bm
After all that you've told me,
            G                 A
You took my heart and made me melt again.
G                 A
Tell me what just happened!

End on D
Suggest correction
comments
print report bad tab
5 comments total. Showing first comments.
0 reply
oblivion1212 170 wrote on December 20 2013, 05:46 am

there's something weird, i can't put a finger on it.. anyways, good job!

0 reply
JrFight3r 104 wrote on December 20 2013, 07:12 am

yeah its not 100% correct thanks!

0 reply
papasmooth33 10 wrote on March 5 2014, 12:47 pm

this is helpfuli start struggling near the middle cuz it looks sodiff from part right before it

guest
You may want to rate the tab now too:
select rating
Wanna post a correction for this tab? Suggest correction