Oops, an error
Loading. Please wait.

Angels Tab

version 2
version 2

Whole song

  • There aren't many tabs or chords of this song to c... Show more

Interactive

1,151 views 3 this week
1 commentread comment
1 2 3 4 5
2 more votes to show rating
add to favorites
launch autoscroll
font size
0
reset
how to read this tab
guitar tuner
Autoscroll
slow
fast
+/-
esc
set tempo
stop
Help us to improve Ultimate-Guitar.com Take our survey!
×
Author
Difficulty
novice
-----------------------------------------------------------------------------
                             Angels - Mayday Parade
-----------------------------------------------------------------------------
Tabbed by: James Godfhrey L Saguid
E-mail: james.saguid@yahoo.com

-----------------------------------------------------------------------------
thanks to [http://www.azlyrics.com/lyrics/maydayparade/angels.html] for lyrics
-----------------------------------------------------------------------------

-----------------------------------------------------------------------------
just play along to http://www.youtube.com/watch?v=7pxk7Cs-LZo for strumming
pattern and timing :)
-----------------------------------------------------------------------------

-----------------------------------------------------------------------------
I probably still got some lyrics wrong though, since I just copy-paste'd some 
parts that have the same chord progression...
-----------------------------------------------------------------------------

-----------------------------------------------------------------------------
after the first chorus, you can use power chords instead of regular chords
-----------------------------------------------------------------------------

NOTE: X5 chord is just a power chord for X, where X is bet. A & G

meh...

Tuning: Standard

INTRO:
e|---2---0h2-----2---|-------|---------------------------|------------------|
B|-----3-----3-----3-|-2h3---|-0---------------3---------|-------3----------|
G|-------------------|-----2-|-----0-2-----2h4---4-2-----|-----0---0--------|
D|-0-----------0-----|-------|---0-----0-------------0---|---4-------4------|
A|-------------------|-0-----|-----------0-------------0-|-2----------------|
E|-------------------|-------|-3-------------------------|------------------|
   D           D       A       G                           Bm

e|-------------|-----2-0h2---|--2-------------------------------------------|
B|-------2-----|---3-------3-|-(3)------------------------------------------|
G|-----2---2---|-------------|-(2)------------------------------------------|
D|---2-------2-|-0-----------|--0-------------------------------------------|
A|-0-----------|-------------|----------------------------------------------|
E|-------------|-------------|----------------------------------------------|
   A             D             D
_____________________________________________________________
VERSE 1:
e|-2-----0h2----|--|-------------------0h2---|-------------|--|
B|---3-------3--|--|-0---------------------3-|-------3-----|--|
G|-----2--------|--|-----0-2---0-2---0-------|-----0---0---|--|
D|-0------------|2x|---0-----0-----0---------|---4-------4-|2x|
A|--------------|--|-------------------------|-2-----------|--|
E|--------------|--|-3-----------------------|-------------|--|
   D                 G                         Bm                  
   Three..           phone calls...            heart...

e|-------------------------|
B|-------3-----2-----0h2---|
G|-----2---2-----2-------2-|
D|---2-------2-----2-------|
A|-0-----------------------|
E|-------------------------|
   A
   this..
_____________________________________________________________
VERSE 2:
e|-2-----0h2----|--|-------------------0h2---|-------------|--|
B|---3-------3--|--|-0---------------------3-|-------3-----|--|
G|-----2--------|--|-----0-2---0-2---0-------|-----0---0---|--|
D|-0------------|2x|---0-----0-----0---------|---4-------4-|2x|
A|--------------|--|-------------------------|-2-----------|--|
E|--------------|--|-3-----------------------|-------------|--|
   D                 G                         Bm                  
   worst..           all...                    possible's... 

e|-------------------------|
B|-------2-----3-----2-----|
G|-----2---2-----2-----2---|
D|---2-------2-----2-----2-|
A|-0-----------------------|
E|-------------------------|
   A
   grab...
_____________________________________________________________
CHORUS 1:
e|-------------|-------------|-------------|-------|
B|-------0-----|-------2-----|-------0-----|--2----|
G|-----0---0---|-----2---2---|-----0---0---|-(2)---|
D|---2-------2-|---4-------4-|---0-------0-|-(2)---|
A|-------------|-------------|-------------|--0----|
E|-0-----------|-2-----------|-3-----------|-------|
   Em            F#m           G              A
   toast...      lucky...      girl...        broke...

e|-------2-----0---------0-|-------------------------|-------------|--|
B|-----3---3-----3---3-----|-------3-----2-----0h2-0-|-------3-----|--|
G|---2-------2-----2---2---|-----2---2-----2---------|-----0---0---|--|
D|-0-----------------------|---0-------0-----0-------|---4-------4-|2x|
A|-------------------------|-------------------------|-2-----------|--|
E|-------------------------|-3-----------------------|-------------|--|
   D                         G                         Bm
     ...I can                breathe..                 told me...

e|-------------|------|
B|-------0-----|-2----|
G|-----0---0---|-2----|
D|---0-------0-|-2----|
A|-------------|-0----|
E|-3-----------|------|
   G             A
   heart...      melt..

____________________________________________
VERSE 3:
        D
I could never imagine we’d end up this way
      G
After all that we went through now I’m fighting through the pain
               Bm
It’s like this heart that’s been broken is so close to screaming
    A                                         A(hold)
Was ripped from my chest and I can’t stop the bleeding

       D
Now we all fall for the bad ones
             G                                       Bm
They’ll just break us cause we’re so young, dumb and vulnerable
           A
Young and vulnerable
_____________________________________________________________
CHORUS 2:

         Em           F#m
Here’s a toast to the lucky ones

       G              A(hold)
To the girl that just broke my heart

D        G                             Bm
 I can’t breathe after all that you’ve told me

            G         A
You took my heart and made me melt again

D                          
 (You ripped apart these pages)
 I      can’t              

Bm                      
 (Our book was overrated)
 breathe    After all that you’ve 

F#m                                    G                 A
 (This brings up all these questions, tell me what just happened, I'll say)
 told me                  You took my heart and made me melt again

_______________________________________________
BRIDGE:
              G          G(hold)       G                       D
I'll put your picture in a frame that stands at the side of my bed
       A                    G             G(hold)
So whenever I get sad I can stare at your face
    G                          D
And hope and pray that I won’t forget
     A                 G                         A
When all I remember is talking is cheap and your lies were expensive
    Bm                  A
And God only knows when I’ll come to my senses
    G       A          Bm
Now I can’t breathe at all (now I can’t breathe)
_______________________________________________

e|-------------|-------------|-------------|-------|
B|-------0-----|-------2-----|-------0-----|--2----|
G|-----0---0---|-----2---2---|-----0---0---|-(2)---|
D|---2-------2-|---4-------4-|---0-------0-|-(2)---|
A|-------------|-------------|-------------|--0----|
E|-0-----------|-2-----------|-3-----------|-------|
   Em            F#m           G              A
   toast...      lucky...      girl...        broke...

D                          
 (You ripped apart these pages)
 I      can’t              

G                      
 (Our book was overrated)
 breathe    After all that you’ve 

Bm                                    G                 A
 (This brings up all these questions, tell me what just happened, I'll say)
 told me                  You took my heart and made me melt again
_______________________________________________
Bm  -C#5                           
 (You ripped apart these pages)
 I      can’t              

D
 (Our book was overrated)
 breathe    After all that you’ve 

G                                     A
 (This brings up all these questions, tell me what just happened, I'll say)
 told me                  You took my heart and made me melt again

G                 A       D(hold)
(I’ll say)
Tell me what just happened


************************************

| /   slide up
| \   slide down
| h   hammer-on
| p   pull-off
| ~   vibrato
| +   harmonic
| x   Mute note
| b   Bend
| pb  Pre-bend
| br  Bend release
| pbr Pre-bend release
| brb Bend release bend

************************************
Suggest correction
Give kudos to tab author, rate the tab!
1 2 3 4 5
comments
print report bad tab
1 comment total.
0 reply
oblivion1212 170 Jan 04, 2014 11:21 AM

found a few errors; updating immediately :P

guest
You may want to rate the tab now too:
select rating
Wanna post a correction for this tab? Suggest correction