Oops, an error
Loading. Please wait.

Anywhere But Here Tab

version 3
version 3

Interactive

11,231 views 18 this week
no commentswrite comment
1 2 3 4 5
excellent!
x 13
add to favorites
launch autoscroll
font size
0
reset
how to read this tab
guitar tuner
Tab Pro tools
  • play this tab
  • loop segment
  • change instrument
  • show fretboard
  • metronome
×
Best way to learn
"Anywhere But Here"
Autoscroll
slow
fast
+/-
esc
set tempo
stop
Contributor
Anywhere But Here - Mayday Parade
Tabbed by: amsxz

Tuning: Drop D

Intro

Guitar 1:
e|------------------------------------------------------------|
B|------------------------------------------------------------|
G|--6~----------------------6~--------------------------------|
D|--6~----6~----7~----9~----6~----6~----7~----9~----9-9--9-9--|
A|--4~----6~----7~----9~----4~----6~----7~----9~----9-9--9-9--|
D|--------6~----7~----9~----------6~----7~----9~----9-9--9-9--|

e|------------------------------------------------------------|
B|------------------------------------------------------------|
G|--6---------------------------6~----------------------------|
D|--6-x8---6------7------9------6-x8---6------7------9--------|
A|--4------6-x8---7-x8---9-x8---4------6-x8---7-x8---9-x8-----|
D|---------6------7------9-------------6------7------9--------|

Guitar 2:
e|--------7---4h5p4---4h5p4-----7---4h5p4---7-5-4-------------|
B|------5---5-------5---------5---5-------5-------------------|
G|--4/6---------------------6---------------------------------|
D|------------------------------------------------------------|
A|------------------------------------------------------------|
D|------------------------------------------------------------|

e|--------7---4h5p4---4h5p4-----7---4h5p4-2-0-4~--------------|
B|------5---5-------5---------5---5---------------------------|
G|----6---------------------6---------------------------------|
D|------------------------------------------------------------|
A|------------------------------------------------------------|
D|------------------------------------------------------------|

Verse

Guitar 1:

e|------------------------------------------------|-------2nd---------|
B|------------------------------------------------|-------time--------|
G|--6~----------------------6~--------------------|-------------------|
D|--6~----6~----7~----9~----6~----6~----7~----9~--|--66-66-6-66-66-7--|   x2
A|--4~----6~----7~----9~----4~----6~----7~----9~--|--66-66-6-66-66-7--|
D|--------6~----7~----9~----------6~----7~----9~--|--66-66-6-66-66-7--|

Chorus

Guitar 1&2:
e|------------------------------|          e|---------|
B|---------2--------------------|          B|---------|
G|--6------2------1------4------|          G|--5------|
D|--6-x8---0-x8---2-x8---4-x8---| x2 then, D|--5-x16--|
A|--4-------------2------2------|          A|--3------|
D|------------------------------|          D|---------|

Repeat Intro
Repeat Verse
Repeat Chorus

then,
Pre-Bridge

Guitar 1:
e|----------------------------|
B|----------------------------|
G|--6-------------------------|
D|--6-x8---6------7------9~---|
A|--4------6-x8---7-x8---9~---|
D|---------6------7------9~---|

Guitar 2:
e|--------7---4h5p4---4h5p4-----7---4~---|
B|------5---5-------5---------5---5------|
G|--4/6---------------------6------------|
D|---------------------------------------|
A|---------------------------------------|
D|---------------------------------------|

Bridge

Guitar 1:
e|-------------------------|
B|--------------------2~---|
G|--6~--8-9~--5~--9-8-2~---|
D|--6~--8-9~--2~--9-8-0~---|  x2
A|--4~--6-7~--3~--7-6------|
D|-------------------------|

e|-------------------------|
B|-------2~----------------|
G|--6~---2~---1~---4~------|
D|--6~---0~---2~---4~------|  x2
A|--4~--------2~---2~------|
D|-------------------------|

Outro

Guitar 1:
e|------------------------------|            e|-----------|
B|------------------------------|            B|-----------|
G|--8------4-------------6------|            G|---7-------|
D|--8-x8---4-x8---4------6-x8---| x2 then,   D|---4-x16---|
A|--6------2------4-x8---4------|            A|---5-------|
D|----------------4-------------|            D|-----------|

e|----------------------------------------------------|
B|----------------------------------------------------|
G|--8------4-------------6------8------4----------6~--|
D|--8-x8---4-x8---4------6-x8---8-x8---4-x8---4-4-6~--|
A|--6------2------4-x8---4------6------2------4-4-4~--|
D|----------------4---------------------------4-4-----|

Guitar 2:

e|--------9---6h7p6---6h7p6----9----6h7p6---9-7-6-------------|
B|------7---7-------7---------7---7-------7-------------------|
G|--6/8---------------------8---------------------------------|
D|------------------------------------------------------------|
A|------------------------------------------------------------|
D|------------------------------------------------------------|

e|--------9---6h7p6---6h7p6-9-9-4~----------------------------|
B|------7---7-------7-----------------------------------------|
G|--6/8-------------------------------------------------------|
D|------------------------------------------------------------|
A|------------------------------------------------------------|
D|------------------------------------------------------------|
comments
print report bad tab
I want to post or [tab]
guest
You may want to rate the tab now too:
select rating
Please do not post tabs as comments. Select "correction" instead!