Oops, an error
Loading. Please wait.

Anywhere But Here Tab

version 5
version 5

Interactive

1,197 views 1 this week
no commentswrite comment
1 2 3 4 5
please rate
add to favorites
launch autoscroll
font size
0
reset
how to read this tab
guitar tuner
Autoscroll
slow
fast
+/-
esc
set tempo
stop
Help us to improve Ultimate-Guitar.com Take our survey!
×
Contributor
Difficulty
intermediate
Standard Tuning (E A D G B E)
h=hammer on
p=pull of

Both guitars:
----------------------------------|
----------------------------------|
-6-----------6--------------------|
-6--6--7--9--6--6--7--9--9-9--9-9-|
-4--6--7--9--4--6--7--9--9-9--9-9-|
----4--5--7-----4--5--7--7-7--7-7-|

Lead:
-----7---4h5p4---4h5p4-----7---4h5p4---7p5p4-|
---5---5-------5---------5---5-------5-------|
-6---------------------6---------------------|
---------------------------------------------|
---------------------------------------------|
---------------------------------------------|

-----7---4h5p4---4h5p4-----7---4h5p4-----|
---5---5-------5---------5---5-------5---|
-6---------------------6---------------4-|
-----------------------------------------|
-----------------------------------------|
-----------------------------------------|

Rhythm:
-------------------------------------------------------------|
-------------------------------------------------------------|
-6--6-6-6-6-6-6----------------------------------------------|
-6--6-6-6-6-6-6-6--6-6-6-6-6-6-7--7-7-7-7-7-7-9--9-9-9-9-9-9-|
-4--4-4-4-4-4-4-6--6-6-6-6-6-6-7--7-7-7-7-7-7-9--9-9-9-9-9-9-|
----------------4--4-4-4-4-4-4-5--5-5-5-5-5-5-7--7-7-7-7-7-7-|

-------------------------------------------------------------|
-------------------------------------------------------------|
-6--6-6-6-6-6-6----------------------------------------------|
-6--6-6-6-6-6-6-6--6-6-6-6-6-6-7--7-7-7-7-7-7-9--9-9-9-9-9-9-|
-4--4-4-4-4-4-4-6--6-6-6-6-6-6-7--7-7-7-7-7-7-9--9-9-9-9-9-9-|
----------------4--4-4-4-4-4-4-5--5-5-5-5-5-5-7--7-7-7-7-7-7-|

Both guitars:
-------------------------------------------------------|
-------------------------------------------------------|
-6-----------6-----------6-----------6-----------------|
-6--6--7--9--6--6--7--9--6--6--7--9--6--6--7--9--9-9-9-|
-4--6--7--9--4--6--7--9--4--6--7--9--4--6--7--9--9-9-9-|
----4--5--7-----4--5--7-----4--5--7-----4--5--7--7-7-7-|

-----------------------------------------|
-----------------------------------------|
-----------------------------------------|
-6-6--6-6--6--6-6--6-6--7--7-7-7-7-7-7-7-|
-6-6--6-6--6--6-6--6-6--7--7-7-7-7-7-7-7-|
-4-4--4-4--4--4-4--4-4--5--5-5-5-5-5-5-5-|

-------------------------------------------------------------|
-------------------------------------------------------------|
-6--6-6-6-6-6-6-2--2-2-2-2-2-2----------------4--4-4-4-4-4-4-|
-6--6-6-6-6-6-6-2--2-2-2-2-2-2-2--2-2-2-2-2-2-4--4-4-4-4-4-4-|
-4--4-4-4-4-4-4-0--0-0-0-0-0-0-2--2-2-2-2-2-2-2--2-2-2-2-2-2-|
-------------------------------0--0-0-0-0-0-0----------------|

-------------------------------------------------------------|
-------------------------------------------------------------|
-6--6-6-6-6-6-6-2--2-2-2-2-2-2----------------4--4-4-4-4-4-4-|
-6--6-6-6-6-6-6-2--2-2-2-2-2-2-2--2-2-2-2-2-2-4--4-4-4-4-4-4-|
-4--4-4-4-4-4-4-0--0-0-0-0-0-0-2--2-2-2-2-2-2-2--2-2-2-2-2-2-|
-------------------------------0--0-0-0-0-0-0----------------|

--------------------------------|
--------------------------------|
-5--5-5-5-5-5-5-5-5-5-5-5-5-5-5-|
-5--5-5-5-5-5-5-5-5-5-5-5-5-5-5-|
-3--3-3-3-3-3-3-3-3-3-3-3-3-3-3-|
--------------------------------|

Lead:
-----7---4h5p4---4h5p4-----7--4-|
---5---5-------5---------5------|
-6---------------------6--------|
--------------------------------|
--------------------------------|
--------------------------------|

Rhythm:
------------------------------------------------|
------------------------------------------------|
-6--6-6-6-6-6-6---------------------------------|
-6--6-6-6-6-6-6-6--6-6-6-6-6-6-7--7-7-7-7-7-7-9-|
-4--4-4-4-4-4-4-6--6-6-6-6-6-6-7--7-7-7-7-7-7-9-|
----------------4--4-4-4-4-4-4-5--5-5-5-5-5-5-7-|

Lead:
I couldn't figure out the lead for this part.

Rhythm:
--------------------------------------------|
--------------------------------------------|
-6--9-11--5--6--4--2----6--9-11--5--6--4--2-|
-6--9-11--5--6--4--2----6--9-11--5--6--4--2-|
-4--7-9---3--4--2--0----4--7-9---3--4--2--0-|
--------------------------------------------|

Both guitars:
-------------------------|
-------------------------|
-6--2-----4--6--2-----4--|
-6--2--2--4--6--2--2--4--|
-4--0--2--2--4--0--2--2--|
-------0-----------0-----|

-------------------------------------------------------------|
-------------------------------------------------------------|
-8--8-8-8-8-8-8-4--4-4-4-4-4-4----------------6--6-6-6-6-6-6-|
-8--8-8-8-8-8-8-4--4-4-4-4-4-4-4--4-4-4-4-4-4-6--6-6-6-6-6-6-|
-6--6-6-6-6-6-6-2--2-2-2-2-2-2-4--4-4-4-4-4-4-4--4-4-4-4-4-4-|
-------------------------------2--2-2-2-2-2-2----------------|

-------------------------------------------------------------|
-------------------------------------------------------------|
-8--8-8-8-8-8-8-4--4-4-4-4-4-4----------------6--6-6-6-6-6-6-|
-8--8-8-8-8-8-8-4--4-4-4-4-4-4-4--4-4-4-4-4-4-6--6-6-6-6-6-6-|
-6--6-6-6-6-6-6-2--2-2-2-2-2-2-4--4-4-4-4-4-4-4--4-4-4-4-4-4-|
-------------------------------2--2-2-2-2-2-2----------------|

----------------------------------|
----------------------------------|
-7--7-7-7-7-7-7-7-7-7-7-7-7-7-7-7-|
-7--7-7-7-7-7-7-7-7-7-7-7-7-7-7-7-|
-5--5-5-5-5-5-5-5-5-5-5-5-5-5-5-5-|
----------------------------------|

Lead:
-----9---6h7p6---6h7p6-----9---6h7p6---9p7p6-|
---7---7-------7---------7---7-------7-------|
-8---------------------8---------------------|
---------------------------------------------|
---------------------------------------------|
---------------------------------------------|

-----9---6h7p6---6h7p6---7--7--6-|
---7---7-------7-------7---------|
-8-------------------------------|
---------------------------------|
---------------------------------|
---------------------------------|

Rhythm:
-------------------------------|
-------------------------------|
-8--8-8-8-8-8-8----------------|
-8--8-8-8-8-8-8-9--9-9-9-9-9-9-|
-6--6-6-6-6-6-6-9--9-9-9-9-9-9-|
----------------7--7-7-7-7-7-7-|

---------------------------------------------|
---------------------------------------------|
-11--11-11-11-11-11-11-----------------------|
-11--11-11-11-11-11-11-11--11-11-11-11-11-11-|
-9---9--9--9--9--9--9--11--11-11-11-11-11-11-|
-----------------------9---9--9--9--9--9--9--|

--------------------------------------------|
--------------------------------------------|
-8--8-8-8-8-8-8------------------11--11-----|
-8--8-8-8-8-8-8-9--9-9-9-9-9-9-9-11--11--11-|
-6--6-6-6-6-6-6-9--9-9-9-9-9-9-9-9---9---11-|
----------------7--7-7-7-7-7-7-7---------9--|
comments
We did not receive enough feedback on this tab! Please rate:
print report bad tab
1 2 3 4 5
I want to post or [tab]
guest
You may want to rate the tab now too:
select rating
Please do not post tabs as comments. Select "correction" instead!