Oops, an error
Loading. Please wait.

Anywhere But Here Tab

version 6
version 6

Interactive

350 views 6 this week
no commentswrite comment
1 2 3 4 5
3 more votes to show rating
add to favorites
launch autoscroll
font size
0
reset
how to read this tab
guitar tuner
Autoscroll
slow
fast
+/-
esc
set tempo
stop
Help us to improve Ultimate-Guitar.com Take our survey!
×
Difficulty
novice
Mayday Parade- Anywhere but here
From Album: Anywhere but here
Tuning: Standard                E A D G B E



--------Intro  PART 1    0.00-0.11
Guitar 1   RHYTM
e-----------------------------------------------------------------------------------|
B-----------------------------------------------------------------------------------|
G---6-------------------------6-----------------------------------------------------|
D---6---6---7----9------------6----6--- 7----9-----------9-9----9-9-----------------|
A---4---6---7----9------------4-- -6----7----9-----------9-9----9-9-----------------|
E-------6---7----9-----------------6----7----9-----------9-9----9-9-----------------|

----------Intro PART 2   0.12-0.23
Guitar 2            LEAD

e---------8----4--5--4---0--4--5--4---------------------8--4--5--4--0--7--5--4-------|
B------------------------------------------------------------------------------------|
G--7--9----------------------------------------7--9----------------------------------|
D------------------------------------------------------------------------------------|
A------------------------------------------------------------------------------------|
E------------------------------------------------------------------------------------|

e------------8----4--5--4---0--4--5--4----------------8----4--5---4---0---2---0---4-|
B-----------------------------------------------------------------------------------|
G--7--9-------------------------------------7--9------------------------------------|
D-----------------------------------------------------------------------------------|
A-----------------------------------------------------------------------------------|
E-----------------------------------------------------------------------------------|

Guitar  1   X2 whole part

e-----------------------------------------------------------------------------------|
B-----------------------------------------------------------------------------------|
G---6--6-6-6-6-6-6-6----------------------------------------------------------------|
D---6--6-6-6-6-6-6-6------6-6-6-6-6-6-6-6-----7-7-7-7-7-7-7-7-------9-9-9-9-9-9-9-9-|
A---4--4-4-4-4-4-4-4------6-6-6-6-6-6-6-6-----7-7-7-7-7-7-7-7-------9-9-9-9-9-9-9-9-|
E-------------------------6-6-6-6-6-6-6-6-----7-7-7-7-7-7-7-7-------9-9-9-9-9-9-9-9-|

------------Verse     0.24-0.46
Guitar    1  ( and guitar 2, if desired)

e----------------------------------------------------------------------------------|
B----------------------------------------------------------------------------------|
G---6----------------------------------------------6-------------------------------|
D---6----6---7--9----------------------------------6----6---7--10---9--------------|
A---4----6---7--9----------------------------------4----6---7--10---9--------------|
E--------6---7--9---------------------------------------6---7--10---9--------------|
  (     X3         )

-------------Pre Chorus    0.47-0.51
Guitar 1 ( and guitar 2, if desired)
e----------------------------------------------------------------------------------|
B----------------------------------------------------------------------------------|
G----------------------------------------------------------------------------------|
D-4-4-----4-4-4----4-4-4-4----5---5-5-5-5-5-5--------------------------------------|
A-4-4-----4-4-4----4-4-4-4----5---5-5-5-5-5-5--------------------------------------|
E-4-4-----4-4-4----4-4-4-4----5---5-5-5-5-5-5--------------------------------------|
            NOW IM CRYING OOOOOUUUUT






--------------Chrous  PART  1  0.52-1.07
Guitar 1 (and guitar 2, if desired)
e-----------------------------------------------------------------------------------|
B-----------------------------------------------------------------------------------|
G--6-6-6-6-6-6-6-6-------------------------------------4-4-4-4-4-4-4-4-----5--------|
D--6-6-6-6-6-6-6-6---7-7-7-7-7-7-7-7--2-2-2-2-2-2-2-2--4-4-4-4-4-4-4-4-----3--------|
A--4-4-4-4-4-4-4-4---7-7-7-7-7-7-7-7--2-2-2-2-2-2-2-2--2-2-2-2-2-2-2-2-----3--------|
E--------------------7-7-7-7-7-7-7-7--2-2-2-2-2-2-2-2-------------------------------|
 (-------------------------------x2------------------------------------) ( x16------|

------------Chorus PART 2      1.08-1.18    =    Intro part 2

-------------Verse 1.19-1.41

------------Pre Chorus  1.42-1.46    =   Pre Chorus   (but now I wont forgeeeeeeet)

-------------Chorus PART 1       1.47-2.02

------------Chorus PART 2        2.03-2.07

Guitar 2
e--------8----4-5-4---0-4-5-4-------------------8----4----let ring-----------------|
B----------------------------------------------------------------------------------|
G-7-9---------------------------------7-9------------------------------------------|
D----------------------------------------------------------------------------------|
A----------------------------------------------------------------------------------|
E----------------------------------------------------------------------------------|

Guitar 1  =  just as intro part 2 but the last chord, You Only Strum Once

------------Bridge                     2.08-2.24

 Guitar 1             X2
e----------------------------------------------------------------------------------|
B----------------------------------------------------------------------------------|
G---6----8---------4----5----6 ----------------------------------------------------|
D---6----8----2----4----5----6-----------------------------------------------------|
A---4----6----2----2----3----4-----------------------------------------------------|
E-------------2--------------------------------------------------------------------|

Guitar 2
e-----------12-11---9---------------------------14-15-14-------12-13-11------------|
B----------------------------------------------------------------------------------|
G----------------------------------------------------------------------------------|
D----------------------------------------------------------------------------------|
A----------------------------------------------------------------------------------|
E----------------------------------------------------------------------------------|
  (during Derek says: disappear)                   (during Derek says pieces, till: I feel)

------------- Pre Chorus      2.24-2.36
Guitar 1                X2
e----------------------------------------------------------------------------------|
B----------------------------------------------------------------------------------|
G-6-----------4--------------------------------------------------------------------|
D-6---7---2---4--------------------------------------------------------------------|
A-4---7---2---2--------------------------------------------------------------------|
E-----7---2------------------------------------------------------------------------|


--------Chorus    2.37-2.51   =   Chorus PART 1

--------Outro      2.52- the end

Guitar 1  =  intro PART 2 guitar 1
Suggest correction
Give kudos to tab author, rate the tab!
1 2 3 4 5
comments
print report bad tab
guest
You may want to rate the tab now too:
select rating
Wanna post a correction for this tab? Suggest correction