Oops, an error
Loading. Please wait.

Black Cat Bass Tab

version 1
version 1

Whole song

Interactive

9,799 views 21 this week
3 commentsread comments
1 2 3 4 5
x 7
add to favorites
launch autoscroll
font size
0
reset
guitar tuner
Autoscroll
slow
fast
+/-
esc
set tempo
stop
Help us to improve Ultimate-Guitar.com Take our survey!
×
Author
Difficulty
Tuning
novice
D A D G B E
Song: Black Cat
Album: A lesson In Romantics
Artist: Mayday Parade

I really want to see a guitar tab of this cause i can't do it myself but the heres the 
part enjoy. questions/comments email gmann311@yahoo.com

(Verse 1)
bass starts after "the boy that gets the girl gets to go home where they get married"

G------------------------------------------------------------|
D------------------------------------------------------------|
A-----------7-5---9-7-4-4-4-4-4------------------------------|
D-9-11-12-5-----7--------------------------------------------|

(Chorus)
G------------------------------------------------------------|
D------------------------------------------------------------|
A------------------------------------------------------------|
D-99-7h99-7h99-7h99-1212-77-55555555-77777777----------------|

(Verse 2)
G------------------------------------------------------------|
D------------------------------------------------------------|
A--------------------444-------------------------------------|
D-9-4h5-5-5h7-9h12-7-----------------------------------------|

G------------------------------------------------------------|
D------------------------------------------------------------|
A-----------7-5---9-7-4-4-4-4-4------------------------------|
D-9-11-12-5-----7--------------------------------------------|

(Chorus)
G------------------------------------------------------------|
D------------------------------------------------------------|
A------------------------------------------------------------|
D-99-7h99-7h99-7h99-1212-77-55555555-77777777----------------|

(Bridge)x2
G------------------------------------------------------------|
D------------------------------------------------------------|
A------------------------------------------------------------|
D-9-9-9-9-9-9-9-9-9-9-9-9-9-5-5-5-5-5-5-5-5-5-5-5-5-5-5-5-5--|

(Solo)
G------------------------------------------------------------|
D------------------------------------------------------------|
A------------------------------------------------------------|
D-9/0-99/0-9/0-99/0-5/0-55/0-5/0-55/0---5*-7*----------------|

(Outro)
G------------------------------------------------------------|
D------------------------------------------------------------|
A-999-777----------------------------------------------------|
D---------121212-111111-9------------------------------------|

Alright thats all of it enjoy and start tabbing more of their songs because mayday 
is amazing
Suggest correction
comments
print report bad tab
3 comments total.
+1 reply
HappyDrugs 94 Nov 09, 2007 06:30 PM

Great tab Man!

Really Accurate Thanks =]

0 reply
s.m.guitar 10 Apr 11, 2009 11:28 AM

Yeah it is accurate. Thanks. =} Mayday parade are awsome. Not as awsome as green day tho.Cant wait for thier new album. And i'm guna see em to... Sorry..
Bye... And thanks again dude.

0 reply
tajinpa 10 Oct 25, 2012 11:30 PM

i mean i dont mean to be that guy but i think the bass during the first verse and second part of the second verse is supposed to be on the d string 9s to 5s to 7s...then ring out 5 until a slide to 12...thats my take on it

guest
You may want to rate the tab now too:
select rating
Wanna post a correction for this tab? Suggest correction