Oops, an error
Loading. Please wait.

Black Cat Tab

version 4
version 4

Whole song

Interactive

9,426 views 1 this week
3 commentsread comments
1 2 3 4 5
please rate
add to favorites
launch autoscroll
font size
0
reset
how to read this tab
guitar tuner
Tab Pro tools
  • play this tab
  • loop segment
  • change instrument
  • show fretboard
  • metronome
×
Best way to learn
"Black Cat"
Autoscroll
slow
fast
+/-
esc
set tempo
stop
Contributor
Difficulty
Tabbers playing skills
intermediate
intermediate
Black Cat
Mayday Parade


Guitar 1
E|------0-0-0--|--0-0-0-0--|------0-0-0--|--0-0-0-0--|------0-0-0--|--0-0-0-0--|
B|------3-3-3--|--3-3-3-3--|------2-2-2--|--3-3-3-3--|------2-2-2--|--2-2-2-2--|
G|-------------|-----------|-------------|-----------|-------------|-----------|
D|-------------|-----------|-------------|-----------|-------------|-----------|
A|--0-2--------|-----------|-------------|-----------|-------------|-----------|
E|-------------|-----------|--2-3--------|-----------|--3-5--------|-----------|

E|--------------|--------------|
B|-------7-7-7--|-------5-5-5--|
G|-------7-7-7--|-------6-6-6--|
D|--------------|--------------|
A|--5-5~--------|--4-4~--------|
E|--------------|--------------|

____________________________________________________________________________________

Guitar 1
E|------0-0-0--|--0-0-0-0--|------0-0-0--|--0-0-0-0--|------0-0-0--|--0-0-0-0--|
B|------3-3-3--|--3-3-3-3--|------2-2-2--|--3-3-3-3--|------2-2-2--|--2-2-2-2--|
G|-------------|-----------|-------------|-----------|-------------|-----------|
D|-------------|-----------|-------------|-----------|-------------|-----------|
A|--0-2--------|-----------|-------------|-----------|-------------|-----------|
E|-------------|-----------|--2-3--------|-----------|--3-5--------|-----------|

Guitar 2
E|-------------|-----------|-------------|-----------|-------------|-----------|
B|-------------|-----------|-------------|-----------|-------------|-----------|
G|-------------|-----------|-------------|-----------|-------------|-----------|
D|-------------|-----------|-------------|--2~~-0~~--|-------------|--4~~-2~~--|
A|-------------|--4~~-5~~--|-------------|-----------|-------------|-----------|
E|-------------|-----------|-------------|-----------|-------------|-----------|

____________________________________________________________________________________

Guitar 1
E|---------|--2~--------|
B|---------|-----2~-----|
G|---------|--------3~--|
D|--4~~~~--|------------|
A|--4~~~~--|------------|
E|--2~~~~--|------------|

Guitar 2
E|---------|------------|
B|---------|------------|
G|---------|--(slide)---|
D|---------|--\\\\\\\\--|
A|---------|--\\\\\\\\--|
E|---------|--\\\\\\\\--|

____________________________________________________________________________________

Guitar 1
E|-------|------|------|---------|------|------|------|-------|2X
B|o------|------|------|---------|------|------|------|------o|
G|---4~--|--4~--|--4~--|--7~-----|------|------|------|-------|
D|---4~--|--4~--|--4~--|--7~-7~--|--5~--|--5~--|--7~--|--7~---|
A|o--2~--|--2~--|--2~--|--5~-7~--|--5~--|--5~--|--7~--|--7~--o|
E|-------|------|------|-----5~--|--3~--|--3~--|--5~--|--5~---|

E|------0-0-0--|--0-0-0-0--|------0-0-0--|--0-0-0-0--|------0-0-0--|--0-0-0-0--|
B|------3-3-3--|--3-3-3-3--|------2-2-2--|--3-3-3-3--|------2-2-2--|--2-2-2-2--|
G|-------------|-----------|-------------|-----------|-------------|-----------|
D|-------------|-----------|-------------|-----------|-------------|-----------|
A|--0-2--------|-----------|-------------|-----------|-------------|-----------|
E|-------------|-----------|--2-3--------|-----------|--3-5--------|-----------|

E|--------------|------------|
B|-------7-7-7--|--------2~--|
G|-------7-7-7--|------------|
D|--------------|--4-4-4-----|
A|--5-5~--------|--4-4-4-----|
E|--------------|--2-2-2-----|

____________________________________________________________________________________

Guitar 1
E|------0-0-0--|--0-0-0-0--|------0-0-0--|--0-0-0-0--|------0-0-0--|--0-0-0-0--|
B|------3-3-3--|--3-3-3-3--|------2-2-2--|--3-3-3-3--|------2-2-2--|--2-2-2-2--|
G|-------------|-----------|-------------|-----------|-------------|-----------|
D|-------------|-----------|-------------|-----------|-------------|-----------|
A|--0-2--------|-----------|-------------|-----------|-------------|-----------|
E|-------------|-----------|--2-3--------|-----------|--3-5--------|-----------|

Guitar 2
E|-------------|-----------|-------------|-----------|-------------|-----------|
B|-------------|-----------|-------------|-----------|-------------|-----------|
G|-------------|-----------|-------------|-----------|-------------|-----------|
D|-------------|-----------|-------------|--2~~-0~~--|-------------|--4~~-2~~--|
A|-------------|--4~~-5~~--|-------------|-----------|-------------|-----------|
E|-------------|-----------|-------------|-----------|-------------|-----------|

____________________________________________________________________________________

Guitar 1
E|---------|
B|---------|
G|---------|
D|--4~~~~--|
A|--4~~~~--|
E|--2~~~~--|

E|-------|------|------|---------|------|------|------|-------|2X |--------|
B|o------|------|------|---------|------|------|------|------o|   |--------|
G|---4~--|--4~--|--4~--|--7~-----|------|------|------|-------|   |--------|
D|---4~--|--4~--|--4~--|--7~-7~--|--5~--|--5~--|--7~--|--7~---|   |--4~~~--|
A|o--2~--|--2~--|--2~--|--5~-7~--|--5~--|--5~--|--7~--|--7~--o|   |--4~~~--|
E|-------|------|------|-----5~--|--3~--|--3~--|--5~--|--5~---|   |--2~~~--|

E|-------------|------------|---------------|---------------|---------------|-------|3X
B|o------------|--------5~--|--7-5---5------|---------------|--7-5---5------|------o|
G|---4-4-6/7~--|--4-4-6-----|------7---7-6--|--7-6-4-6-4----|------7---7-6--|-------|
D|-------------|------------|---------------|------------7--|---------------|--4~---|
A|o------------|------------|---------------|---------------|---------------|------o|
E|-------------|------------|---------------|---------------|---------------|-------|

E|------------|------------|---------------|---------------|------|
B|------------|--------5~--|--7-5---5------|---------------|------|
G|--4-4-6/7~--|--4-4-6-----|------7---7-6--|--7-6-4-6-4----|------|
D|------------|------------|---------------|------------7--|--4~--|
A|------------|------------|---------------|---------------|------|
E|------------|------------|---------------|---------------|------|

E|---------------|---------------|---------------|---------------|---------------|
B|--12-15-12-----|--12-----------|---------------|---------------|---------------|
G|-----------14--|-----14-11-14--|--11\10/11-14--|--11-14-11-----|--11-14-11-14--|
D|---------------|---------------|---------------|-----------14--|---------------|
A|---------------|---------------|---------------|---------------|---------------|
E|---------------|---------------|---------------|---------------|---------------|

E|---------------|---------------------|---------------|
B|---------------|---------------------|---------------|
G|--11----11-14--|--11-14-11-----------|---------------|
D|-----14--------|-----------14b16b14--|--12-14-12-----|
A|---------------|---------------------|-----------14--|
E|---------------|---------------------|---------------|

E|------------------------------|--------------------|------|------|
B|------------------------------|--------------------|------|------|
G|------------------------------|--------------------|------|------|
D|------------------------------|--------14-14~~~~~--|--5~--|--5~--|
A|--12-14b16-14b16b14-14b16b14--|--14b16----14b16~~--|--5~--|--5~--|
E|------------------------------|--------------------|--3~--|--3~--|

E|---------------|----(fast)-----(fast)----|----------------------------|
B|--12-15-12-----|--(12--------(12---------|-------(fast)-----(fast)----|
G|-----------14--|------14-11)-----14-11)--|-----(11-14-11)-(14-11-14)--|
D|---------------|-------------------------|--14------------------------|
A|---------------|-------------------------|----------------------------|
E|---------------|-------------------------|----------------------------|

E|-------------------|-----------------------|-----------------|
B|-------------------|-----------------------|-----------------|
G|--11---------------|---(fast)-----(fast)---|-----------------|
D|-----14-12-14-12~--|--(12-9-----(12-9------|------------12~--|
A|-------------------|--------12)-------12)--|--12-12/14~------|
E|-------------------|-----------------------|-----------------|


E|------|------|--------------------|3X |-------------|--------|
B|------|------|o------------------o|   |-------------|--------|
G|------|------|--------------------|   |--7~-7-------|--------|
D|--5~--|--5~--|--------------------|   |--7~-7-7~-7--|--5~-4--|
A|--5~--|--5~--|o------------------o|   |--5~-5-7~-7--|--5~-4--|
E|--3~--|--3~--|--5-7-5-7-5-7-5-7---|   |-------5~-5--|--3~-2--|

E|-------|------|------|---------|------|------|------|-------|2X
B|o------|------|------|---------|------|------|------|------o|
G|---4~--|--4~--|--4~--|--7~-----|------|------|------|-------|
D|---4~--|--4~--|--4~--|--7~-7~--|--5~--|--5~--|--7~--|--7~---|
A|o--2~--|--2~--|--2~--|--5~-7~--|--5~--|--5~--|--7~--|--7~--o|
E|-------|------|------|-----5~--|--3~--|--3~--|--5~--|--5~---|

E|--------------|---------|2X |--------------|--------|
B|o-------------|--------o|   |--------------|--------|
G|--------------|----7~---|   |--------------|----4~--|
D|---9~-x-9-9~--|--x-7~---|   |--5~--x-5-5~--|--x-5~--|
A|o--9~-x-9-9~--|--x-----o|   |--5~--x-5-5~--|--x-----|
E|---7~-x-7-7~--|--x------|   |--3~--x-3-3~--|--x-----|

E|------|---------------------------------|
B|------|---------------------------------|
G|------|---------------------------------|
D|--7~--|---------------------------------|
A|--7~--|--9-9-9-7-7-7--------------------|
E|--5~--|--------------9-9-9-10-10-10-7~--|

Comments and rating are appreciated.
comments
We did not receive enough feedback on this tab! Please rate:
print report bad tab
1 2 3 4 5
3 comments total.
+1 reply
jackSonisTHEsHi wrote on July 12 2009, 06:31 pm

FUCK U YOU GIFTEED DOUCHE

0 reply
jackSonisTHEsHi wrote on October 29 2009, 03:02 pm

hey u should add me... thnx for the cmt... u were firsties

+1 reply
guitarismybff wrote on June 28 2011, 08:12 am

Umm...you are talking to yourself. Derp derp derp

I want to post or [tab]
guest
You may want to rate the tab now too:
select rating
Please do not post tabs as comments. Select "correction" instead!