Oops, an error
Loading. Please wait.

Bruised And Scarred Tab

version 2
version 2

Whole song

Interactive

14,267 views 9 this week
2 commentsread comments
1 2 3 4 5
excellent!
x 6
add to favorites
launch autoscroll
font size
0
reset
how to read this tab
guitar tuner
Tab Pro tools
  • play this tab
  • loop segment
  • change instrument
  • show fretboard
  • metronome
×
Best way to learn
"Bruised And Scarred"
Autoscroll
slow
fast
+/-
esc
set tempo
stop
Contributor
Difficulty
Tuning
novice
D A D G B E
Song: Bruised And Scarred
Artist: Mayday Parade
Album: Anywhere But Here

Tuning: Dropped D

I'm quite sure of this tab.. Easy and catchy song.. :3

Intro:
Guitar 1:
|-----------------------------|
|-----------------------------|
|--7~-------------------------|
|--7~---9~----555555-777777---|
|--5~---9~----555555-777777---|
|-------9~----555555-777777---|

Guitar 2:
|-10-9-10-------------------10-9-10-------------------|
|---------10s7-8-7---7--------------10s7-8-7---7------|
|------------------9---9-7~------------------9---9-7--|
|-----------------------------------------------------|
|-----------------------------------------------------|
|-----------------------------------------------------|


--10-9-10~---------10-9-10-10s12~--|
-----------9~--9~------------------|
-----------------------------------|
-----------------------------------|
-----------------------------------|
-----------------------------------|


Verse:
Guitar 1:
plays this all throughout:          plays this at the end of each line:
|------------------|                |---------------------------|
|------------------|                |---------------------------|
|----7---9--7---7--|                |---7---9-7---9-7---9-7---7-|
|--7---7------7----| x a lot        |-7---7-----7-----7-----7---|
|------------------|                |---------------------------|
|------------------|                |---------------------------|


Guitar 2:plays this at the 2nd part of verse.. (0:27)
|----10----12-10----10--|
|-10----10-------10-----|
|-----------------------|
|-----------------------| x a lot
|-----------------------|
|-----------------------|

then plays this at the end of verse:
-17-15----17-15-14----15-14-12----14-12--|
-------15----------15----------15--------|
-----------------------------------------|
-----------------------------------------|
-----------------------------------------|
-----------------------------------------|


Pre-Chorus:
Guitar 1:
|------------------------|
|------------------------|
|------------------------|
|--9~---7~---5~---77777--|
|--9~---7~---5~---77777--|
|--9~---7~---5~---77777--|

Guitar 2:quite hard to hear.. i'll update this later..
|-------------------------------------------|
|-------------------------------------------|
|-----------------------------------22222---|
|----4-5-4~-----4-5-4~-----4-5-4~---22222---|
|--5----------5----------5----------00000---|
|-------------------------------------------|

Chorus:
Guitar 1:just figure out the switching..
|-----------------------------|
|-----------------------------|
|-77777777--------------------|
|-77777777-99999977-555555-77-|
|-55555544-99999977-555555-77-|
|----------99999977-555555-77-|

Guitar 2: with delay.
|----------------------------------------|
|----------------------------------------|
|----7~----7~----------------------------|
|----7~----7~----9~----7~----5~----7~----|
|----5~----4~----9~----7~----5~----7~----|
|----------------9~----7~----5~----7~----|

Post-chorus:
Guitar 1:
|---------------------|
|---------------------|
|--77777777-----------|
|--77777777--777777---|
|--55555555--777777---|
|------------777777---|

Guitar 2:
|-10-9-10---------------------|
|---------10s7-8-7---7--------|
|------------------9---9-7~/--|
|-----------------------------|
|-----------------------------|
|-----------------------------|

Verse 2:
Guitar 1:
plays this all throughout:          then:
|------------------|                |---------------------------|
|------------------|                |---------------------------|
|----7---9--7---7--|                |---7---9-7---9-7---9-7---7-|
|--7---7------7----| x a lot        |-7---7-----7-----7-----7---|
|------------------|                |---------------------------|
|------------------|                |---------------------------|

Guitar 2:comes in at (1:26)
|----10----12-10----10--|
|-10----10-------10-----|
|-----------------------|
|-----------------------| x a lot
|-----------------------|
|-----------------------|

then plays this at the end of verse:
-17-15----17-15-14----15-14-12----14-12--|
-------15----------15----------15--------|
-----------------------------------------|
-----------------------------------------|
-----------------------------------------|
-----------------------------------------|

Pre-Chorus 2:
Guitar 1:
|------------------------|
|------------------------|
|------------------------|
|--9~---7~---5~---77777--|
|--9~---7~---5~---77777--|
|--9~---7~---5~---77777--|

Guitar 2:
|-------------------------------------------|
|-------------------------------------------|
|-----------------------------------22222---|
|----4-5-4~-----4-5-4~-----4-5-4~---22222---|
|--5----------5----------5----------00000---|
|-------------------------------------------|


Chorus 2:
Guitar 1:just figure out the switching..
|-----------------------------|
|-----------------------------|
|-77777777--------------------|
|-77777777-99999977-555555-77-|
|-55555544-99999977-555555-77-|
|----------99999977-555555-77-|

Guitar 2: with delay.
|----------------------------------------|
|----------------------------------------|
|----7~----7~----------------------------|
|----7~----7~----9~----7~----5~----7~----|
|----5~----4~----9~----7~----5~----7~----|
|----------------9~----7~----5~----7~----|

Then:(2:05) just figure out the strumming..
|----------------------------|
|----------------------------|
|----------------------------|
|--9--7--5~----5--7--0~------|
|--9--7--5~----5--7--0~------|
|--9--7--5~----5--7--0~------|

Bridge(2:14):
Guitar 1:
|------------|
|-----7------|
|---7---7~---|
|------------| x a lot
|------------|
|------------|

Guitar 2:
|------------------------------------------------------|
|----------------------------------10101010------------|
|-9999-11111111-9999-11111111-9999----------9999-6666--|
|------------------------------------------------------|
|------------------------------------------------------|
|------------------------------------------------------|

-----------------------------------|
-------10101010--------------------|
--9999----------12121212-11111111--|
-----------------------------------|
-----------------------------------|
-----------------------------------|

Then:(2:30)

Guitar 1:
|------------------------------------|
|------------------------------------|
|--7~---7~---------------------------|
|--7~---7~---9~------5-----77777777--|
|--5~---4~---9~------5-----77777777--|
|------------9~------5~----77777777--|

Guitar 2:
|-10-9-10--------------|
|---------7h8s10~------|
|----------------------|
|----------------------| to be continued.
|----------------------|
|----------------------|


Missing parts will be updated really really soon. :3
comments
print report bad tab
2 comments total.
+1 reply
DomRusky wrote on October 16 2013, 10:26 am

Just to save you some time, the outro is:

B|--5-5--7-7--5-5--7-7---|
G|---7-7--7-7--7-7--7-7--|

Everything else in the tab is pretty good though, awesome job :) 5*!

0 reply
UltimateTish wrote on April 4 2015, 04:52 pm

Hi there!
--10-9-10~---------10-9-10-10s12~--|
-----------9~--9~------------------|
-----------------------------------|
-----------------------------------|
-----------------------------------|
-----------------------------------|

You used this for this part, but this sounds better to me

--10-9-10~---------10-9-10-10s12~--|
-----------10~---------------------|
-----------------------------------|
-----------------------------------|
-----------------------------------|
-----------------------------------|

But everything else is extremely good though! ^^

I want to post or [tab]
guest
You may want to rate the tab now too:
select rating
Please do not post tabs as comments. Select "correction" instead!