Oops, an error
Loading. Please wait.

Center Of Attention Tab

2,817 views 1 this week
2 commentsread comments
1 2 3 4 5
accurate
x 5
add to favorites
launch autoscroll
font size
0
reset
how to read this tab
guitar tuner
Tab Pro tools
  • play this tab
  • loop segment
  • change instrument
  • show fretboard
  • metronome
×
Best way to learn
"Center Of Attention"
Autoscroll
slow
fast
+/-
esc
set tempo
stop
Contributor
Difficulty
-----------------------------------------
  Song: Center Of Attention
Artist: Mayday Parade
 Album: Anywhere But Here
-----------------------------------------
Standard tuning
-----------------------------------------



((Intro))
e|--------------------------------------|
B|--------------------------------------|
G|-66666666-----------------------------|
D|-66666666-88888888-66666666-44444444--|
A|-44444444-88888888-66666666-44444444--|
E|----------66666666-44444444-22222222--|

e|---------------------------|
B|---------------------------|
G|--12-11-6-8--6-8-10-8-6----|
D|---------------------------|
A|---------------------------|
E|---------------------------|

((Verse))
e|-------------------------------------|
B|-------------------------------------|
G|-6666666666666666--------------------|
D|-6666666666666666-8888888888888888---|
A|-4444444444444444-8888888888888888---|
E|------------------6666666666666666---|
PM  .. .... .. ....  .. .... .. ....

e|-------------------------------------|
B|-------------------------------------|
G|-------------------------------------|
D|-4444444444444444-6666666666666666---|
A|-4444444444444444-6666666666666666---|
E|-2222222222222222-4444444444444444---|
PM  .. .... .. ....  .. .... .. ....

e|-------------------------------------|
B|-------------------------------------|
G|-6666666666666666--------------------|
D|-6666666666666666-6666666666666666---|
A|-4444444444444444-6666666666666666---|
E|------------------4444444444444444---|
PM  .. .... .. ....  .. .... .. ....

e|-------------------------------------|
B|-------------------------------------|
G|-------------------------------------|
D|-4444444444444444-6666666666666666---|
A|-4444444444444444-6666666666666666---|
E|-2222222222222222-4444444444444444---|
PM  .. .... .. ....  .. .... .. ....


((Chorus))
e|--------------------------------------|
B|--------------------------------------|
G|-------------------66666666-----------|
D|-88888888-44444444-66666666-66666666--|
A|-88888888-44444444-44444444-66666666--|
E|-66666666-22222222----------44444444--|  X2

e|-------------------------------------|
B|-------------------------------------|
G|---------------------------6-6-6-6---|
D|-44444444-66666666-8-8-8-8-6-6-6-6---|
A|-44444444-66666666-8-8-8-8-4-4-4-4---|
E|-22222222-44444444-6-6-6-6-----------|  

e|-------------|
B|-------------|
G|-------------|
D|-44444444-6~-|
A|-44444444-6~-|
E|-22222222-4~-|  


((Intro))
((Verse))
((Chorus))

((Bridge))
e|----------------|-\/Second Time Play\/--------|
B|----------------|----------------------|      |
G|-5/66-5/66-5/6--|-5/66-5/66-5/66-5/6---|      |
D|-5/66-5/66-5/6--|-5/66-5/66-5/66-5/6---|      |
A|-3/44-3/44-3/4--|-3/44-3/44-3/44-3/4---|      |
E|----------------|----------------------|      |
                                                   |
e|-------------------------------------------|  |
B|-------------------------------------------|  |
G|-6-5---------------------------------------|  |
D|-6-5-8888888888888886-44444444-66666666----|  |
A|-4-2-8888888888888886-44444444-66666666----|  |
E|-----6666666666666664-22222222-44444444----|--|X2

e|--------------------|
B|--------------------|
G|-6666666666666666~--|
D|-6666666666666666~--|
A|-4444444444444444~--|
E|--------------------|  

((Chorus))
((Intro))

((Ending))
e|----------------|
B|----------------|
G|-5/66-5/66-5/6--|
D|-5/66-5/66-5/6--|
A|-3/44-3/44-3/4--|
E|----------------|

comments
print report bad tab
2 comments total.
0 reply
DonutDan41 wrote on July 9 2010, 01:29 pm

The intro riff isn't


e|---------------------------|
B|---------------------------|
G|--12-11-6-8--6-8-10-8-6----|
D|---------------------------|
A|---------------------------|
E|---------------------------|


but:

e|---------------------------|
B|---------------------------|
G|--11-10-6-8--6-8-10-8-6----|
D|---------------------------|
A|---------------------------|
E|---------------------------|

0 reply
nickyc95 wrote on September 21 2010, 02:28 pm

Kinda confusing, coul have mad it a little simpler by adding the lyrics so you can follow with the song...

I want to post or [tab]
guest
You may want to rate the tab now too:
select rating
Please do not post tabs as comments. Select "correction" instead!