Oops, an error
Loading. Please wait.

Champagnes For Celebrating Bass Tab

version 1
version 1

Whole song

Interactive

4,056 views 3 this week
no commentswrite comment
1 2 3 4 5
please rate
add to favorites
launch autoscroll
font size
0
reset
guitar tuner
Tab Pro tools
  • play this tab
  • loop segment
  • change instrument
  • show fretboard
  • metronome
×
Best way to learn
"Champagnes For Celebrating"
Autoscroll
slow
fast
+/-
esc
set tempo
stop
Contributor
Difficulty
intermediate
-------------------------------------------------------------------------------
      Champagne's for Celebrating, I'll have a Martini - Mayday Parade
-------------------------------------------------------------------------------

This is my first tab, but I think it's pretty accurate. You have to listen for the rhythm on 

some spots, but other than that it's cool. Please e-mail me if you have any corrections or 

feedback.

Tabbed By : Ben Wernick
e-mail: theyodawg@hotmail.com

Tuning: Standard

  Intro
G|---------------------------------------------------------------------------|
D|---------------------------------------------------------------------------|
A|---------------------------------------------------------------------------|
E|-00000000-77777777-9999999999999999-00000000-77777777-9999999999999999\----|
   
  Verse 1 (She said she's headed west...) x2
G|---------------------------------------------------------------------------|
D|---------------------------------------------------------------------------|
A|-----------------7h9-------------------------------------------------------|
E|-0-0-0-0--77-7h9-----222-222-2---------------------------------------------|

  Pre- Chorus (But he thinks it's just one more sunset...) x2
G|---------------------------------------------------------------------------|
D|---------------------------------------------------------------------------|
A|---------------------------------------------------------------------------|
E|---0~------7~------2~------------------------------------------------------|

  Chorus (So Why'd you have to go...) (listen for the rhythm)
G|---------------------------------------------------------------------------|
D|---------------------------------------------------------------------------|
A|---------------------------------------------------------------------------|
E|-444444444444-000000000000---7777777777777-222222222222-444444444444-------|

G|---------------------------------------------------------------------------|
D|---------------------------------------------------------------------------|
A|---------------------------------------------------------------------------|
E|-000000000000-444444-222222-000000000000-----------------------------------|

  Verse 2 (She said she's headed west...)
G|---------------------------------------------------------------------------|
D|---------------------------------------------------------------------------|
A|---------------------------------------------------------------------------|
E|-77777777-2222222222222222-00000000-77777777-2222222222222222--------------|

  Pre-Chorus (But he thinks it's just one more sunset...)
G|---------------------------------------------------------------------------|
D|---------------------------------------------------------------------------|
A|---------------------------------------------------------------------------|
E|---0~------7~-------2~------------0~------7~------2222222-141414141414\----|

  Chorus (So Why'd you have to go...) (listen for the rhythm)
G|---------------------------------------------------------------------------|
D|---------------------------------------------------------------------------|
A|---------------------------------------------------------------------------|
E|-444444444444-000000000000---7777777777777-222222222222-444444444444-------|

G|---------------------------------------------------------------------------|
D|---------------------------------------------------------------------------|
A|---------------------------------------------------------------------------|
E|-000000000000-444444-222222-000000000000-----------------------------------|

  Bridge (Try as I might...) (listen for rhythm) x2
G|---------------------------------------------------------------------------|
D|---------------------------------------------------------------------------|
A|---------------------------------------------------------------------------|
E|-444444444444-000000000000-777777777777-222222-444444----------------------|

  Breakdown (She sings you'll be my tourniquet...) (no bass til 2:35)
G|---------------------------------------------------------------------------|
D|---------------------------------------------------------------------------|
A|-------9-------------------------------------------------------------------|
E|-009-7---00---22---44---77---00000000-22222222-4444444444444444------------|

G|---------------------------------------------------------------------------|
D|---------------------------------------------------------------------------|
A|---------------------------------------------------------------------------|
E|-0000000000000000-22-22-2~-------------------------------------------------|

  Chorus (So Why'd you have to go...) (listen for the rhythm)
G|---------------------------------------------------------------------------|
D|---------------------------------------------------------------------------|
A|---------------------------------------------------------------------------|
E|-444444444444-000000000000-7777777777777-222222222222-444444444444---------|

G|---------------------------------------------------------------------------|
D|---------------------------------------------------------------------------|
A|---------------------------------------------------------------------------|
E|-000000000000-444444-222222-000000000000-----------------------------------|

  Modified Chorus
G|---------------------------------------------------------------------------|
D|---------------------------------------------------------------------------|
A|---------------------------------------------------------------------------|
E|-444444444444-000000000000-7777777777777-222222222222-777777777777---------|

G|---------------------------------------------------------------------------|
D|---------------------------------------------------------------------------|
A|---------------------------------------------------------------------------|
E|-000000000000-444444-222222-000000000000-----------------------------------|

  Outro (You're walking down a road that I can't go...)
G|-------------------------------------|
D|-------------------------------------|
A|-------------------------------------|
E|-444444-222222-000000000000----------|

G|------------------------|
D|------------------------|
A|------------------------|
E|-444444-222-2222--------|






| /  slide up
| \  slide down
| h  hammer-on
| p  pull-off
| ~  vibrato
| +  harmonic
| x  Mute note
===============================================================================
comments
We did not receive enough feedback on this tab! Please rate:
print report bad tab
1 2 3 4 5
I want to post or [tab]
guest
You may want to rate the tab now too:
select rating
Please do not post tabs as comments. Select "correction" instead!