Oops, an error
Loading. Please wait.

Champagnes For Celebrating Ill Have A Martini Tab

version 1
version 1

Whole song

Interactive

18,263 views 3 this week
9 commentsread comments
1 2 3 4 5
excellent!
x 26
add to favorites
launch autoscroll
font size
0
reset
how to read this tab
guitar tuner
Tab Pro tools
  • play this tab
  • loop segment
  • change instrument
  • show fretboard
  • metronome
×
Best way to learn
"Champagnes For Celebrating Ill Have A Martini"
Autoscroll
slow
fast
+/-
esc
set tempo
stop
Contributor
Difficulty
intermediate
-------------------------------------------------------------------------------
        Champagne's For Celebrating (I'll Have A Martini) - Mayday Parade
-------------------------------------------------------------------------------
Tabbed by: Sean Hummer
Email: allstar21369@hotmail.com

I really like this song and Mayday Parade is an awesome band. Let me know if
you think this sounds right and e-mail me any corrections. Thanks!

Update: 6/26/2008- Included an alternate lead for the intro.

Tuning: Standard


Intro- 
Guitar 1
e|---------------------------------------------------------------------------|
B|---------------------------------------------------------------------------|
G|---------4-----------------------------------------------------------------|
D|2--------4-x8-----4--------------------------------------------------------|
A|2-x8-----2--------4-x16----------------------------------------------------|
E|0-----------------2--------------------------------------------------------|

Guitar 2
e|---------------------------------------------------------------------------|
B|---------------------------------------------------------------------------|
G|9--------8--------6---------6-4--------------------------------------------|
D|x-x8-----x-x8-----x-x16-----x\x-(On the last time)-------------------------|
A|7--------6--------4---------4-2--------------------------------------------|
E|---------------------------------------------------------------------------|

Guitar 3
e|7-----------9--------------------------------------------------------------|
B|7-----------9--------------------------------------------------------------|
G|9-----------11-------------------------------------------------------------|
D|9-x16-------11-x16---------------------------------------------------------|
A|7-----------9--------------------------------------------------------------|
E|---------------------------------------------------------------------------|

(or for the intro lead just play the following to combine Guitar's 2 and 3)

Guitar 2+3 (Optional)
e|7---------7---------9----------9\7-----------------------------------------|
B|7-x8------7-x8------7-x16------7---(On the last time)----------------------|
G|9---------8---------6----------6-------------------------------------------|
D|---------------------------------------------------------------------------|
A|-----------(Fast downstrokes)----------------------------------------------|
E|---------------------------------------------------------------------------|



Verse 1-
Guitar 1 (Clean)
e|----7-------7-------7-------7-------7-------7-------6-------6/7------------|
B|--7---7---7---7---7---7---7---7---7---7---7---7---7---7---7----------------|
G|9-------9-------8-------8-------6-------6-------6-------6------------------|
D|---------------------------------------------------------------------------|
A|---------------------------------------------------------------------------|
E|---------------------------------------------------------------------------|




Pre-Chorus-
Guitar 1
e|---------------------------------------------------------------------------|
B|---------------------------------------------------------------------------|
G|-------4~------------------------------------------------------------------|
D|2~-----4~-----4~--(Let the notes ring out)---------------------------------|
A|2~-----2~-----4~-----------------------------------------------------------|
E|0~------------2~-----------------------------------------------------------|

Guitar 2
e|---------------------------------------------------------------------------|
B|----------------------4-----2-----4-----2---4------------------------------|
G|----------------4-4-4---4-4---4-4---4-4---4--------------------------------|
D|---------------------------------------------------------------------------|
A|---------------------------------------------------------------------------|
E|---------------------------------------------------------------------------|
  PM              . . .   . .   . .   . .   .




Chorus-
Guitar 1
e|---------------------------------------------------------------------------|
B|---------------------------------------------------------------------------|
G|---------------------------------------------------------------------------|
D|6------2------9-----4--------------6------2------6-----4-----2-------------|
A|6-x16--2-x16--9-x16-4-x16----------6-x16--2-x16--6-x8--4-x8--2-x8----------|
E|4------0------7-----2--------------4------0------4-----2-----0-------------|

Guitar 2
e|------------2------2h4p2------2h4p2---------------------------------2------|
B|--4-2h4p2-----------------------------2h4p2-4---2h4p2-----2h4p2---2-2------|
G|4---------4---4--4-------4--4-------4---------4-------4-4-------4----------|
D|---------------------------------------------------------------------------|
A|---------------------------------------------------------------------------|
E|---------------------------------------------------------------------------|

(Guitar 2 cont.)
e|----------------2---2---2--------------------------------------------------|
B|----------------------------4---4---5p4-5h7--------------------------------|
G|--------------4---4---4---4---4---4----------------------------------------|
D|---------------------------------------------------------------------------|
A|---------------------------------------------------------------------------|
E|---------------------------------------------------------------------------|
  PM            .   .   .   .   .   .




Verse 2-
Guitar 1 (Clean) (Comes in after Guitar 2 plays it's riff once)
e|----7-------7-------7-------7-------7-------7-------6-------6/7------------|
B|--7---7---7---7---7---7---7---7---7---7---7---7---7---7---7----------------|
G|9-------9-------8-------8-------6-------6-------6-------6------------------|
D|---------------------------------------------------------------------------|
A|---------------------------------------------------------------------------|
E|---------------------------------------------------------------------------|

Guitar 2
e|---------------------------------------------------------------------------|
B|---5-5-5-5-5-5-5-5-4-4-4-4-4-4-4-4-2-2-2-2-2-2-2-2-2-2-2-2-2-2-2p0----x2---|
G|---------------------------------------------------------------------------|
D|---------------------------------------------------------------------------|
A|---------------------------------------------------------------------------|
E|---------------------------------------------------------------------------|
  PM . . . . . . . . . . . . . . . . . . . . . . . . . . . . . . 


Guitar 3 (Slide the first note down fast then just upstrokes on the rest)
e|--------------7\---7x------7x------7x------7x------6x------7x--------------|
B|--------------7\---7x------7x------7x------7x------7x------7x--------------|
G|--------------9\---8x------8x------6x------6x------6x------6x--------------|
D|---------------------------------------------------------------------------|
A|---------------------------------------------------------------------------|
E|---------------------------------------------------------------------------|

(Guitar 3 cont.)
e|---7x------7x------7x------7x------7x------7x------6x------7x--------------|
B|---7x------7x------7x------7x------7x------7x------7x------7x--------------|
G|---9x------9x------8x------8x------6x------6x------6x------6x--------------|
D|---------------------------------------------------------------------------|
A|---------------------------------------------------------------------------|
E|---------------------------------------------------------------------------|




Bridge- (This part is hard to hear)
Guitar 1
e|---------------------------------------------------------------------------|
B|---------------------------------------------------------------------------|
G|4-------------------4------------------------------------------------------|
D|4-x16-----2---------4-x16-----4--------6x-6x-6\4-4x------------------------|
A|2---------2-x16-----2---------4-x8-----6x-6x-6\4-4x------------------------|
E|----------0-------------------2--------4x-4x-4\2-2x------------------------|

e|---------------------------------------------------------------------------|
B|---------------------------------------------------------------------------|
G|4-----6-6-6-6--8-8-8-8--------6-6-6-6--8-8-8-8--4--------------------------|
D|4-x8--x-x-x-x--x-x-x-x--2-----x-x-x-x--x-x-x-x--4-x16--4-----6x-6x-6\4-4x--|
A|2-----4-4-4-4--6-6-6-6--2-x8--4-4-4-4--6-6-6-6--2------4-x8--6x-6x-6\4-4x--|
E|------------------------0------------------------------2-----4x-4x-4\2-2x--|


Guitar 2
e|---------------------------------------------------------------------------|
B|---------------------------------------------------------------------------|
G|4-----6-6-6-6--8-8-8-8--4-----6-6-6-6--8-8-8-8--8------6-----4x-4x-4\3-3x--|
D|x-x8--x-x-x-x--x-x-x-x--x-x8--x-x-x-x--x-x-x-x--x-x16--x-x8--xx-xx-x\x-xx--|
A|2-----4-4-4-4--6-6-6-6--2-----4-4-4-4--6-6-6-6--6------4-----2x-2x-2\1-1x--|
E|---------------------------------------------------------------------------|

e|---------------------------------------------------------------------------|
B|---------------------------------------------------------------------------|
G|8-----6-6-6-6--11-11-11-11--8-----9-9-9-9--11-11-11-11----11-11-11-11------|
D|x-x8--x-x-x-x--x--x--x--x---x-x8--x-x-x-x--x--x--x--x-----x--x--x--x-------|
A|6-----4-4-4-4--9--9--9--9---6-----7-7-7-7--9--9--9--9-----9--9--9--9--9b---|
E|---------------------------------------------------------------------------|

e|---------------------------------------------------------------------------|
B|---------------------------------------------------------------------------|
G|11-11-11-11-------------6-----8x-8x-8-6-4----------------------------------|
D|x--x--x--x--------------x-x8--xx-xx-x-x-x----------------------------------|
A|9--9--9--9--9b----------4-----6x-6x-6\4\2----------------------------------|
E|---------------------------------------------------------------------------|




Breakdown-
Guitar 1
e|---------------------------------------------------------------------------|
B|---------------------------------------------------------------------------|
G|---------------------------------------------------------------------------|
D|---2-2-2-2-2-2-2-2-4-4-4-4-4-4-4-4-6-6-6-6-6-6-6-6-6-6-6-6-6-6-6-6---------|
A|---2-2-2-2-2-2-2-2-4-4-4-4-4-4-4-4-6-6-6-6-6-6-6-6-6-6-6-6-6-6-6-6---------|
E|---0-0-0-0-0-0-0-0-2-2-2-2-2-2-2-2-4-4-4-4-4-4-4-4-4-4-4-4-4-4-4-4---------|
  PM . . . . . . . . . . . . . . . . . . . . . . . . . . . . . . . .

e|---------------------------------------------------------------------------|
B|---------------------------------------------------------------------------|
G|---------------------------------------------------------------------------|
D|---2-2-2-2-2-2-2-2-4-4-4-4-4-4-4-4-6-6-6-6-6-6-6-6-9-9-9-9-9-9-9-9---------|
A|---2-2-2-2-2-2-2-2-4-4-4-4-4-4-4-4-6-6-6-6-6-6-6-6-9-9-9-9-9-9-9-9---------|
E|---0-0-0-0-0-0-0-0-2-2-2-2-2-2-2-2-4-4-4-4-4-4-4-4-7-7-7-7-7-7-7-7---------|
  PM . . . . . . . . . . . . . . . . . . . . . . . . . . . . . . . .

e|---------------------------------------------------------------------------|
B|---------------------------------------------------------------------------|
G|---------------------------------------------------------------------------|
D|---2-2-2-2-2-2-2-2-4-4-4-4-4-4-4-4-6-6-6-6-6-6-6-6-6-6-6-6-6-6-6-6---------|
A|---2-2-2-2-2-2-2-2-4-4-4-4-4-4-4-4-6-6-6-6-6-6-6-6-6-6-6-6-6-6-6-6---------|
E|---0-0-0-0-0-0-0-0-2-2-2-2-2-2-2-2-4-4-4-4-4-4-4-4-4-4-4-4-4-4-4-4---------|
  PM . . . . . . . . . . . . . . . . . . . . . . . . . . . . . . . .

e|---------------------------------------------------------------------------|
B|---------------------------------------------------------------------------|
G|---------------------------------------------------------------------------|
D|---2-2-2-2-2-2-2-2-2-2-2-2-2-2-2-2---4x-4x---4x-4x---4x-4~-----------------|
A|---2-2-2-2-2-2-2-2-2-2-2-2-2-2-2-2---4x-4x---4x-4x---4x-4~-----------------|
E|---0-0-0-0-0-0-0-0-0-0-0-0-0-0-0-0---2x-2x---2x-2x---2x-2~-----------------|
  PM . . . . . . . . . . . . . . . .


Guitar 2 (Clean) (Comes in after Guitar 1 plays it's riff once)
e|7------7------7------7----------7------7-----------------------------------|
B|--7------7------7------7----------7------7---------------------------------|
G|---------------------------------------------------------------------------|
D|----9------9------9-----------------9------9-------------------------------|
A|---------------------------------------------------------------------------|
E|---------------------------------------------------------------------------|




Outro- (There's a lot going on here)
Guitar 1
e|---------------------------------------------------------------------------|
B|---------------------------------------------------------------------------|
G|4---------------------------------4----------------------------------------|
D|4-x16--2------6------4------------4-x16--2------6-----4-----2--------------|
A|2------2-x16--6-x16--4-x16--------2------2-x16--6-x8--4-x8--2-x16----------|
E|-------0------4------2-------------------0------4-----2-----0--------------|

e|---------------------------------------------------------------------------|
B|---------------------------------------------------------------------------|
G|---------------------------------------------------------------------------|
D|6-----4-----2------------6-----4-------------------------------------------|
A|6-x8--4-x8--2-x16--------6-x8--4-x8----------------------------------------|
E|4-----2-----0------------4-----2-------------------------------------------|



Guitar 2 (The ~~ = let the note ring while holding it down, then slide)
e|---------------------------------------------------------------------------|
B|---------------------------------------------------------------------------|
G|4---------------------------------------8-------13------9-9-9-9-11-11-11-11|
D|4-x16---2-------6-------4---------------x-x16---x--x8---x-x-x-x-x--x--x--x-|
A|2-------2-x16---6-x16---4-x16-----------6-------11------7-7-7-7-9--9--9--9-|
E|--------0-------4-------2--------------------------------------------------|

e|---------------------------------------------------------------------------|
B|---------------------------------------------------------------------------|
G|8-----6-----4--------------------------------------------------------------|
D|x-x8--x-x8--x-x16----------------------------------------------------------|
A|6-----4-----2----------------2~~/4--1~~/9--------2~~/4--1~~/9--------------|
E|-------------------------------------------4~------------------------------|



Guitar 3 (Comes in at about 3:37, "walking down a road...")
e|---------------------------------------------------------------------------|
B|---------------------------------------------------------------------------|
G|9-9-9-9\8----11-11-11-11/13----4-------8-8-8-8/11-11-11-11-----------------|
D|x-x-x-x\x----x--x--x--x-/x-----x-x8----x-x-x-x/x--x--x--x------------------|
A|7-7-7-7\6----9--9--9--9-/11----2-------6-6-6-6/9--9--9--9------------------|
E|---------------------------------------------------------------------------|

e|---------------------------------------------------------------------------|
B|---------------------------------------------------------------------------|
G|9-9-9-9\8----11-11-11-11/13----4-------9-9-9-9\8---------------------------|
D|x-x-x-x\x----x--x--x--x-/x-----x-x8----x-x-x-x\x---------------------------|
A|7-7-7-7\6----9--9--9--9-/11----2-------7-7-7-7\6---------------------------|
E|---------------------------------------------------------------------------|

e|---------------------------------------------------------------------------|
B|---------------------------------------------------------------------------|
G|9-9-9-9\8----11-11-11-11-11-11-11-11---------------------------------------|
D|x-x-x-x\x----x--x--x--x--x--x--x--x----------------------------------------|
A|7-7-7-7\6----9--9--9--9--9--9--9--9----------------------------------------|
E|---------------------------------------------------------------------------|




| /  slide up
| \  slide down
| h  hammer-on
| b  bend note
| p  pull-off
| PM palm-mute
| ~  let ring
| +  harmonic
| x  Mute note
===============================================================================
comments
print report bad tab
9 comments total. Showing first comments.
0 reply
SoulAvatar wrote on November 23 2007, 08:42 am

i know where they get that title from. its from mr and mrs smith!!! that mr smith said tat sentence in the restaurant
when both of them danced while trying to kill each other.

-1 reply
Roflcopter wrote on April 15 2008, 12:19 pm

Not even close

0 reply
flinch08 wrote on April 16 2008, 06:44 pm

Roflcopter... dont be jealous. this is just about perfect! 5 stars.

I want to post or [tab]
guest
You may want to rate the tab now too:
select rating
Please do not post tabs as comments. Select "correction" instead!