Oops, an error
Loading. Please wait.

Ghosts Bass

2,358 views 3 this week
4 commentsread comments
1 2 3 4 5
x 6
add to favorites
launch autoscroll
font size
0
reset
guitar tuner
×
Best way to learn
"Ghosts"
Autoscroll
slow
fast
+/-
esc
set tempo
stop
Author
Difficulty
Tuning
  follow
intermediate
D A D G
Song:   Ghosts
Artist: Mayday Parade
Album:  Monsters in the Closet
Tuning: Drop D (D A D G)

No Bass in the Intro

Verse 1:
G|----------------------------------------0------|
D|------------------------------------2-3---3----|
A|-\33333333----------0000--------0-3---------3--|
D|-----------66666666------5552-3----------------|

G|-----------------------------------------------|
D|-----------------------------------------------|
A|-------------------3333------00000000----------|
D|-00000000-55555555------6666-------------------|

G|-----------------------------------------------|
D|-----------------------------------------------|
A|-------------------3333------00-22-33-22\------|
D|-33333333-55555555------6666-------------------|

G|-----------------------------------------------|
D|------------------22---------------------------|
A|--------00-----------33333333------------------|
D|-333333----555555-------------555555-/17\------|

Chorus:
G|-----------------------------------------------|
D|-----------------------------------------------|
A|----------33333333----------0000---------------|
D|-33333333----------22222222------5555----------|

G|-----------------------------------------------|
D|-----------------------------------------------|
A|----------33333333---------------0-------------|
D|-33333333----------55555555--55-----5----------|

G|-----------------------------------------------|
D|-----------------------------------------------|
A|----------33333333----------0--0---------------|
D|-33333333----------22222222------5--5----------|

G|-----------------------------------------------|
D|-----------------------------/55555555---------|
A|----------33333333----------/------------------|
D|-33333333----------55555555/-------------------|


Guitar Solo/Verse 2:
G|-----------------------------------------------|
D|-----------------------------------------------|
A|-33333333----------0000------------------------|
D|----------66666666------5555-33333333----------|

G|-----------------------------------------------|
D|-----------------------------------------------|
A|-------------------3--3------0--00000----------|
D|-00000000-55555555------6--6-------------------|

G|-----------------------------------------------|
D|-----------------------------------------------|
A|-------------------3--3------000000------------|
D|-33333333-55555555------6--6--------55---------|

G|-----------------------------------------------|
D|-----------------------------------------------|
A|-------00-33-------33333333--------------------|
D|-33-55-------3-3~------------5555555-----------|

Chorus:
G|-----------------------------------------------|
D|-----------------------------------------------|
A|----------33333333----------0000---------------|
D|-33333333----------22222222------5555----------|

G|-----------------------------------------------|
D|-----------------------------------------------|
A|----------33333333---------------0-------------|
D|-33333333----------55555555--55-----5----------|

G|-----------------------------------------------|
D|-----------------------------------------------|
A|----------33333333----------0--0---------------|
D|-33333333----------22222222------5--5----------|

G|-----------------------------------------------|
D|-----------------------------/55555555---------|
A|----------33333333----------/------------------|
D|-33333333----------55555555/-------------------|

Break:
G|-----------------------------------------------|
D|-----------------------------------------------|
A|-3333333333333333------------------------------|
D|------------------22222222222222-55------------|

G|-----------------------------------------------|
D|-----------------------------------------------|
A|-0000000000000000------------------------------|
D|------------------3333333333333333-------------|

G|-----------------------------------------------|
D|-----------------------------------------------|
A|-333333333333333-5-2222222222222222------------|
D|-----------------------------------------------|

G|-----------------------------------------------|
D|-----------------------------------------------|
A|-0000000000000000------------------------------|
D|------------------3333333333333333-------------|

Bridge:
G|-----------------------------------------------|
D|-----------------------------------------------|
A|-33----33~-------------------------------------|
D|-----------22----22~--77----57~--33----33~-----|x2

G|----------------------------------------------------------------|
D|----------------------------------------------------------------|
A|3333333333333333----------------0000000000000000----------------|
D|----------------2222222222222222----------------3333333333333333|x6
Suggest correction
comments
print report bad tab
4 comments total. Showing first comments.
+1 reply
haydenb23 14 Oct 19, 2015 01:32 PM

This is really minor but I think in the bridge it goes 22~--77----57~--33----33~

guest
You may want to rate the tab now too:
select rating
Wanna post a correction for this tab? Suggest correction