Oops, an error
Loading. Please wait.

Ghosts Tab

3,040 views 3 this week
1 commentread comment
1 2 3 4 5
x 5
add to favorites
launch autoscroll
font size
0
reset
how to read this tab
guitar tuner
Autoscroll
slow
fast
+/-
esc
set tempo
stop
Help us to improve Ultimate-Guitar.com Take our survey!
×
Author
Difficulty
advanced
Ghosts - Mayday Parade (Solo)

OK Mayday fans - couldn't find this tabbed so had a go. 
Seems to be some overdubbed guitars in the solo so had a try at the most prominent (melody line).
Please help make it more accurate if you can by commenting...and thank God for the Tempo Slow app!

1:25

e|----5-|
B|-8----|
G|------|
D|------|
A|------|
E|------|

                     *triplet
e|-8-5-5|--------|------|------|--------|------|--------|------|
B|----8-|-8-5-8-5|--5---|------|--------|------|--------|------|
G|------|--------|-8-875|-7-5-5|--------|------|--------|------|
D|------|--------|------|----7-|-7-5-7-5|--5-5-|-6-5-6-7|-9-7-9|
A|------|--------|------|------|--------|-7-7--|--------|------|
E|------|--------|------|------|--------|------|--------|------|


e|---------|
B|------5--|
G|-5--7----|
D|---------|
A|---------|
E|---------|

   *half beat rest                               *2 guitars here
e|--------------------|------------------------|-----------7----|
B|--------------------|------------------------|--------------8-|
G|--------------------|--------------------7p5-|-4/5\4/5-7------|
D|--7-5---7-5---------|-----------------5h7----|----------------|
A|-----7-5---7-5------|----2h3-5/7--3-/7-------|----------------|
E|--------------8--5--|-3-5--------------------|----------------|


   T          T        T                      *artificial harmonic?
e|-----------------------------------|----12-b13r12-|
B|-18p10p6h10-17p9p5h9-15h6p5h6-5--6-|-8--8---------|
G|-----------------------------------|--------------|
D|-----------------------------------|--------------|
A|-----------------------------------|--------------|
E|-----------------------------------|--------------|


(T for Tap)

___________________________
Requested by Elberta at BCR
Suggest correction
comments
print report bad tab
1 comment total.
0 reply
forgivenforgetme.lp 41 Aug 27, 2015 12:02 AM

There are some incorrect parts, which ill correct in my own playing when i can but all round its a very good tab, and u got the tapping spot on which i very rarely see, thank u so much for this tab :)

guest
You may want to rate the tab now too:
select rating
Wanna post a correction for this tab? Suggest correction