Oops, an error
Loading. Please wait.

Girls Tab

949 views 9 this week
no commentswrite comment
1 2 3 4 5
accurate
x 3
add to favorites
launch autoscroll
font size
0
reset
how to read this tab
guitar tuner
Tab Pro tools
  • play this tab
  • loop segment
  • change instrument
  • show fretboard
  • metronome
×
Best way to learn
"Girls"
Autoscroll
slow
fast
+/-
esc
set tempo
stop
Contributor
Difficulty
novice
-------------------------------------------------------------------------------
                             girls - mayday parade
-------------------------------------------------------------------------------
Tabbed by:alva81
E-mail:alva81@live.it
I think it is almost entirely correct!!??

Tuning:Eadgbe
intro:
e|--0--0--0--0--0------------------------------------------------------------|
B|--0--0--0--0--0------------------------------------------------------------|
G|--9--4--6--2--4------------------------------------------------------------|
D|--9--4--6--2--4------------------------------------------------------------|
A|--7--2--4--0--2------------------------------------------------------------|
E|---------------------------------------------------------------------------|
gr1
e|---------------------------------------------------------------------------|
B|---------------------------------------------------------------------------|
G|--9--13--9--4--11--8--4--13--10--------------------------------------------|
D|---------------------------------------------------------------------------|
A|--7--11--7--2--9---6--4--11--9---------------------------------------------|
E|---------------------------------------------------------------------------|
gr2 repeat itro

verse:
gr1
e|-----------------------------0-0-0-0-0-0-0-0-0-0-0-0-0-0-0-----------------|
B|-----------------------------5-5-5-5\4-4-5-5-5\4-4-5-5-5-7-----------------|
G|--9-9-9-9--9-9-9-9--8-8-8-8-------------------------------------4~---4~----|
D|---------------------------------------------------------------2~---2~-----|
A|--7-7-7-7--7-7-7-7--6-6-6-6----------------------------------4~----0~------|
E|---------------------------------------------------------------------------|

e|---------------------------------------------------------------------------|
B|---------------------------------------------------------------------------|
G|-----------2-2-2-2--4-4-4-4-----------2-2-2-2--4-4-4-4---------------------|
D|--2-2-2-2--2-2-2-2--4-4-4-4--2-2-2-2--2-2-2-2--4-4-4-4---------------------|
A|--2-2-2-2--0-0-0-0--2-2-2-2--2-2-2-2--0-0-0-0--2-2-2-2---------------------|
E|--0-0-0-0--------------------0-0-0-0---------------------------------------|
Chorus:
gr1
e|-----------------------------------------------------------------------------------------|
B|-9p0-12p0-16p0-12p0-9p0-12p0-16p0-12p0------9p0-12p0-16p0-12p0-9p0-7p0-9p0-7p0-----------|
G|---------------------------------------11-11----------------------------------9-9-11-11--|
D|-----------------------------------------------------------------------------------------|
A|---------------------------------------9--9-----------------------------------7-7-9--9---|
E|-----------------------------------------------------------------------------------------|
gr2
repeat intro
verse:
gr2
e|------------------------^---------------------------------------------------|
B|------------------------9---------------------------------------------------|
G|-----------4--4--------------------4-4-4-4----------------------------------|
D|-2-2-2-2--2--2--2-2-2-2---2-2-2-2--4-4-4-4----------------------------------|
A|-2-2-2-2-4--0---2-2-2-2---0-0-0-0--2-2-2-2----------------------------------|
E|-0-0-0-0--------0-0-0-0-----------------------------------------------------|
gr1
e|-------------------------------------------------7-------------7-----------|
B|------------------------------------------4\5-5-5-5-5-0-4\5-5-5-5-5-0-4\5--|
G|-9-9-9-9-------9-9-9-9----9-9-9-9--8-8-8-8---------------------------------|
D|---------------------------------------------------------------------------|
A|-7-7-7-7-------7-7-7-7----7-7-7-7--6-6-6-6---------------------------------|
E|---------------------------------------------------------------------------|
repeat chours

bridge:
gr1
e|-----------------------------------------------------------------------------------------|
B|-----------------------------------------------------------------------------------------|
G|-----------------------------------------------------------------------------------------|
D|-----------------------------------------------------------------------------------------|
A|-7-11-9-7-7-11-9-7-4-4-6-6-7-11-9-7-7-11-9-7-6-6-2-2-4-4-2-2-0-0-7-11-9-7-7-11-9-7-6-----|
E|-0------0-0----------------0------0-0------0---------------------0------0-0------0-------|
gr2
e|-----------------------------------------------------------------------------------------|
B|-----------------------------------------------------------------------------------------|
G|-------2-2-2-2-2---------4-4-4-4-6-6-6-6-------------------------------------------------|
D|-2-2-2-2-2-2-2-2-2-2-2-2-4-4-4-4-6-6-6-6-2-2-2-2-2-2-2-2-4-4-4-4-------------------------|
A|-2-2-2-2-0-0-0-0-2-2-2-2-2-2-2-2-4-4-4-4-0-0-0-0-2-2-2-2-2-2-2-2-------------------------|
E|-0-0-0-0---------0-0-0-0-------------------------0-0-0-0---------------------------------|
Outro:
gr1
e|-----------------------------------------------------------------------------------------|
B|-5---2--4--5--7--9--10--9--8-------------------------------------------------------------|
G|-4---2--4--4--8--9---9--9--7-------------------------------------------------------------|
D|-----------------------------------------------------------------------------------------|
A|-----------------------------------------------------------------------------------------|
E|-----------------------------------------------------------------------------------------|

************************************

| /   slide up
| \   slide down
| h   hammer-on
| p   pull-off
| ~   vibrato
| +   harmonic
| x   Mute note
| b   Bend
| pb  Pre-bend
| br  Bend release
| pbr Pre-bend release
| brb Bend release bend

************************************
comments
We did not receive enough feedback on this tab! Please rate:
print report bad tab
1 2 3 4 5
I want to post or [tab]
guest
You may want to rate the tab now too:
select rating
Please do not post tabs as comments. Select "correction" instead!