Oops, an error
Loading. Please wait.

Happy Endings Are Stories That Havent Ended Yet Tab

version 2
version 2

Solo

Whole song

2,564 views 3 this week
no commentswrite comment
1 2 3 4 5
x 4
add to favorites
launch autoscroll
font size
0
reset
how to read this tab
guitar tuner
Autoscroll
slow
fast
+/-
esc
set tempo
stop
Help us to improve Ultimate-Guitar.com Take our survey!
×
Mayday Parade

Happy Endings Are Stories That Haven't Ended Yet

Video of play through <--- https://www.youtube.com/watch?v=gZoAnVyok_A

Tuning: Half step down

E|--------------11--12--11--12--14--14--12--12--|
B|--14--12--14----------------------------------|
G|----------------------------------------------|
D|----------------------------------------------|
A|----------------------------------------------|
E|----------------------------------------------|


E|---------------------------------------------------------------|
B|--10p9------9--------------------------------------------------|
G|--------11-----9p8------8--------------------------------------|
D|--------------------11-----9p7p6--7p6-----6--------------------|
A|---------------------------------------9-----9--7-----7-----7--|
E|---------------------------------------------------7-----7-----|

E|----------------------------------------------------------------------------------|
B|----------------------------17---------17-----------------------------------------|
G|--13--11--13/14--16--16b18------16b18------16------16------16------16b18----------|
D|-----------------------------------------------18------18------18---------18--16--|
A|----------------------------------------------------------------------------------|
E|----------------------------------------------------------------------------------|

E|------------------------------------------------------------------------15b17--12p11--11h12--12---|
B|----------7--8p7-----12--12h14p12--7--------9--10--9--10h12--14p12--14----------------------------|
G|--6--9p6----------9-------------------9/11--------------------------------------------------------|
D|--------------------------------------------------------------------------------------------------|
A|--------------------------------------------------------------------------------------------------|
E|--------------------------------------------------------------------------------------------------|

Singing starts again
(repeat these notes, listen for strumming)

E|-------------------------------------|
B|-------------------12-----12-----12--|
G|--9--8--9--11--13------9------9------|
D|-------------------------------------|
A|-------------------------------------|
E|-------------------------------------|

E|--------------------------------------------------------|
B|-----------------------------------------12--10--9------|
G|--9-----9--11--9-----9--11--9-----9--11-------------11--|
D|-----9------------9------------9------------------------|
A|--------------------------------------------------------|
E|--------------------------------------------------------|

Second Solo

E|------------------------------------------------------------------------------|
B|--9------12p9--12p9--12/14----------------------------------------------------|
G|--11b13---------------------11--9h11p9--8h9-----------------------------------|
D|-----------------------------------------------9--6h7p6--------------6--------|
A|---------------------------------------------------------7--9--7--9-----9--7--|
E|------------------------------------------------------------------------------|

E|-12----------12h14p12--12h14p12--16--14p12--9------9-------9------9-------12----12-----12----12-----|
B|-----14--12---------------------------------12b14--12b14---12b14--12b14---15b17--15b17--15b17--15b17|
G|----------------------------------------------------------------------------------------------------|
D|----------------------------------------------------------------------------------------------------|
A|----------------------------------------------------------------------------------------------------|
E|----------------------------------------------------------------------------------------------------|
Suggest correction
comments
print report bad tab
guest
You may want to rate the tab now too:
select rating
Wanna post a correction for this tab? Suggest correction