Oops, an error
Loading. Please wait.

Hold Onto Me tab

version 1
version 1

Whole song

19,073 views 45 this week
6 commentsread comments
1 2 3 4 5
x 10
add to favorites
×
Save as Personal and add changes to this tab that will be seen only by you. Learn more ›
×
You can save this tab as Personal to edit and correct it or add notes. All changes will be seen only by you. Learn more »
launch autoscroll
font size
0
reset
how to read this tab
guitar tuner
edit
Autoscroll
slow
fast
+/-
esc
set tempo
stop
Author
Difficulty
Okay so here's the main riff in the beginning.

-------------------------------------------------|l
------------------------------------------2------|l
------------------2--------2--------------2------|l
-----------0h2--------2-------------------2------|l
---2h4--------------------------0--0-------------|l
-------------------------------------------------|l

CHORDS:
  Bm     F#m    A     D     E
|--2--|--2--|--0--|--2--|--0--|
|--3--|--2--|--2--|--3--|--0--|
|--4--|--2--|--2--|--2--|--1--|
|--4--|--4--|--2--|--0--|--2--|
|--2--|--4--|--x--|--x--|--2--|
|--X--|--2--|--x--|--x--|--0--|

"Hold Onto Me"

VERSE 1:
          (main riff)                          A
I know I've got my problems and it starts with me
        (main riff)                  A
She saw something inside that I can't see
   (main riff)                          A
And late at night, yeah she'll comfort me
     Bm             F#m
Hold onto me, Hold onto me

VERSE 2:
       (main riff)                      A
I got a nervous habit and I drink too much
             (main riff)                              A
She said she hates her life and wants to change her ways
   (main riff)                                A
She wakes in the night and whispers Oh so quiet


     Bm             F#m
Hold onto me, Hold onto me
           Bm                    F#m
Don't you ever leave, Don't you ever leave
             D                         A
I know I've got my problems and its probably me
         Bm            F#m
So hold onto me, Hold onto me

VERSE 3:
      (main riff)                    A
Stayed up to late and it hurts to breathe
    (main riff)                      A
Said it's 4 A.M., girl go back to sleep
     (main riff)                      A
Sometimes at night I can hear her dreams

     Bm                 F#m
Come rescue me, Come rescue me
           Bm                    F#m
Don't you ever leave, Don't you ever leave
         D                             A
I know we got our problems and its probably me
         Bm            F#m
So hold onto me, Hold onto me

BRIDGE:
          D      A         E
I'm a drifters body in an open sea
           D           A              E
And I've seen my reflection staring right back at me
      D          A              F#m        E
With no place to go and you're left all alone
D            A           E
There's no place like home


     Bm             F#m
Hold onto me, Hold onto me
     Bm                  F#m
Just stay with me, Just stay with me
           D                             A
I know we got our problems and you'll probably leave
        Bm             F#m
So hold onto me, Hold onto me
        Bm                   F#m
I could never leave, I will never leave
         Bm           F#m
So hold onto me, Hold onto me
(end on main riff)

            
            
Suggest correction
Creating personal tab
Creating personal tab
You can edit any tab online and save it as your Personal.

You can edit, replace or remove any tab part or add personal notes – all changes will be seen only by you.

Personal tabs can be accessed anytime from any device, even offline.
Learn more »
comments
print report bad tab
6 comments total. Showing first comments.
+1 reply
skill3tfr3ak 10 Oct 23, 2013 12:36 PM

in the intro shouldn't it be a 2 on the G string instead of a 3?

-------------------------
----------------------2--
---------2---2--------2--
----0h2----2----------2--
-2h4------------0--0-----
-------------------------

That's the only thing that sounded really off everything else was right on.

0 reply
James.Gesic.7 10 Mar 12, 2014 02:22 PM

Great song to learn and play! :)

0 reply
Elimc98 10 Jan 03, 2015 02:48 PM

This tab is 100% correct

e ----------------------------------------------------------------------------
B ---------------2------------------------------------------------------------
G --------2------2------------------------------------------------------------
D -----0h2-0h2---2------------------------------------------------------------
A --2h4-------00--------------------------------------------------------------
E ----------------------------------------------------------------------------

guest
You may want to rate the tab now too:
select rating
Wanna post a correction for this tab? Suggest correction