Oops, an error
Loading. Please wait.

I Swear This Time I Mean It Tab

version 1
version 1

Whole song

Interactive

73,906 views 45 this week
1 commentread comment
1 2 3 4 5
x 3
add to favorites
launch autoscroll
font size
0
reset
how to read this tab
guitar tuner
×
Best way to learn
"I Swear This Time I Mean It"
Autoscroll
slow
fast
+/-
esc
set tempo
stop
Author
Difficulty
Tuning: standard

[Intro] 
[0:00-0:13]
e|---3----3----3----2----3-------------------------------------------|
B|---3----3----3----3----3-------------------------------------------|
G|---0----0----0----2----0-------------------------------------------|
D|---0----2----2----0----2-------------------------------------------|
A|---2----3----2----0----3-------------------------------------------|
E|---3----0----0---------0-------------------------------------------|

[Verse] 
[0:14-0:26]
e|---3-----3-----3-----3-----3-----2-----3-----3------3--------------|
B|---3-----3-----3-----3-----3-----3-----3-----3------3--------------|
G|---0-----2-----0-----2-----0-----2-----0-----0------2--------------|
D|---0-----0-----2-----0-----2-----0-----2-----0------0--------------|
A|---2-----0-----3-----0-----2-----0-----3-----2------0--------------|
E|---3-----2-----------2-----0-----------------3------2--------------|

[Verse] 
[0:27-0:40]
e|---3-----3-----3-----3-----3-----2-----3-----3---------------------|
B|---3-----3-----3-----3-----3-----3-----3-----3---------------------|
G|---0-----2-----0-----2-----0-----2-----0-----0---------------------|
D|---0-----0-----2-----0-----2-----0-----2-----0---------------------|
A|---2-----0-----3-----0-----2-----0-----3-----2---------------------|
E|---3-----2-----0-----2-----0-----------0-----3---------------------|

[0:41-0:53]
e|--3----------------2---3--------------3------2---------------------|
B|--3----------------3---3--------------3------3---------------------|
G|--0----------------2---0--------------0------2---------------------|
D|--2----------------0---2--------------2------0---------------------|
A|--3----------------0---3--------------2------0---------------------|
E|--0--------------------0--------------0----------------------------|
    (I'm outdated,  overrated.    morning seems so far  away)

[Chorus] 
[0:54-1:22]
e|---3-----3-----3-----3-----2-----3-----3-----3-----3-----2-----3---|
B|---3-----3-----3-----3-----3-----3-----3-----3-----3-----3-----3---|
G|---0-----2-----0-----0-----2-----0-----2-----0-----0-----2-----0---|
D|---0-----0-----2-----2-----0-----0-----0-----2-----2-----0-----0---|
A|---2-----0-----3-----2-----0-----2-----0-----3-----2-----0-----2---|
E|---3-----2-----0-----0-----------3-----2-----0-----0-----------3---|

[1:23-1:35]
e|-----------------3-2---------------------------------------------3-3/5--3-|
B|--------------------3---------------------------------------------3-------|
G|-4-5-7---4-5-7----------4-5-7---5-4--2-4-2-0----2-4-2-0---2-4-2-----------|
D|--------------------------------------------------------------------------|
A|--------------------------------------------------------------------------|
E|--------------------------------------------------------------------------|
 
[1:23-1:35]
e|-3---------------3-----3---------3---------3------------2-----------3---3--|
B|-3---------------3-----3---------3---------3------------3-----------3---3--|
G|-0---------------2-----0---------2---------0------------2-----------0---0--|
D|-0---------------0-----2---------0---------2------------0-----------2---0--|
A|-2---------------0-----3---------0---------2------------0-----------3---2--|
E|-3---------------2-----0---------2---------0------------------------0---3--|

[Verse] (x2) 
[1:36-2:02]
e|--3-----3-----3-----3-----3-----2-----3-----3----------------------------|
B|--3-----3-----3-----3-----3-----3-----3-----3----------------------------|
G|--0-----2-----0-----2-----0-----2-----0-----0----------------------------|
D|--0-----0-----2-----0-----2-----0-----2-----0----------------------------|
A|--2-----0-----3-----0-----2-----0-----3-----2----------------------------|
E|--3-----2-----0-----2-----0-----------0-----3----------------------------|

[2:03-2:16]
e|--3----------------2---3--------------3------2---------------------------|
B|--3----------------3---3--------------3------3---------------------------|
G|--0----------------2---0--------------0------2---------------------------|
D|--2----------------0---2--------------2------0---------------------------|
A|--3----------------0---3--------------2------0---------------------------|
E|--0--------------------0--------------0----------------------------------|
    (I'm outdated,  overrated.    morning seems so far  away)

[Chorus] 
[2:17-2:45]
e|---3-----3-----3-----3-----2-----3-----3-----3-----3-----2-----3---------|
B|---3-----3-----3-----3-----3-----3-----3-----3-----3-----3-----3---------|
G|---0-----2-----0-----0-----2-----0-----2-----0-----0-----2-----0---------|
D|---0-----0-----2-----2-----0-----0-----0-----2-----2-----0-----0---------|
A|---2-----0-----3-----2-----0-----2-----0-----3-----2-----0-----2---------|
E|---3-----2-----0-----0-----------3-----2-----0-----0-----------3---------|

[2:46-2:57]
e|----3------2---------3-------2-------------------------------------------|
B|----3------3---------3-------3-------------------------------------------|
G|----0------2---------0-------2-------------------------------------------|
D|----2------0---------2-------0-------------------------------------------|
A|----3------0---------3-------0-------------------------------------------|
E|----0----------------0---------------------------------------------------|
            (could  get  it  right)

[Bridge] 
[2:58-3:11]
e|-----3---------------3------------------3-----------3--------2-------3---|
B|-------3---3------------3---3-------------3----3----3--------3-------3---|
G|---0-----0---------2------2----------0-------0------0--------2-------0---|
D|----------------------------------------------------2--------0-------0---|
A|----------------------------------3-----------------2--------0-------2---|
E|-3-------------2------------------------------------0----------------3---|
    (you could crush me...)            ('cause baby I'm a dreamer for sure)

[3:12-3:24]
e|------3--------------3-----------------3------------3------------2-------|
B|--------3---3-----------3---3------------3----3-----3------------3-------|
G|----0-----0-------2-------2---------0-------0-------0------------2-------|
D|----------------------------------------------------2------------0-------|
A|----------------------------------3-----------------2------------0-------|
E|--3-------------2-----------------------------------0--------------------|
  (and I wont let you down..)                     (I swear this time I mean it)

[Chorus]
[3:25-4:01]   *strum last chord once*
e|---3-----3-----3-----3-----2-----3-----3-----3-----3-----2-----3---------|
B|---3-----3-----3-----3-----3-----3-----3-----3-----3-----3-----3---------|
G|---0-----2-----0-----0-----2-----0-----2-----0-----0-----2-----0---------|
D|---0-----0-----2-----2-----0-----0-----0-----2-----2-----0-----0---------|
A|---2-----0-----3-----2-----0-----2-----0-----3-----2-----0-----2---------|
E|---3-----2-----0-----0-----------3-----2-----0-----0-----------3---------|



************************************

| /  Slide up

************************************
Suggest correction
Give kudos to tab author, rate the tab!
1 2 3 4 5
comments
print report bad tab
1 comment total.
0 reply
epiphreak 72 Nov 08, 2009 02:09 PM

the other *tab* is easier to read.

guest
You may want to rate the tab now too:
select rating
Wanna post a correction for this tab? Suggest correction