Oops, an error
Loading. Please wait.

I Swear This Time I Mean It Chords

version 2
version 2

Interactive

322,833 views 594 this week
7 commentsread comments
1 2 3 4 5
accurate
x 13
add to favorites
launch autoscroll
font size
0
reset
transpose
0
reset
simplify chords
display chords
guitar tuner
Autoscroll
slow
fast
+/-
esc
set tempo
stop
Help us to improve Ultimate-Guitar.com Take our survey!
×
Author
Difficulty
novice
This one's off their new album coming out in a couple of days

    G   Dsus4/F#   Cadd9   Em7    Dsus4/D (It normally goes from Dsus4 to D and back..
e|--3-----3---------3-------3-----3/2------|    just marked as D in tab)
B|--3-----3---------3-------3-----3--------|
G|--0-----2---------0-------0-----2--------|
D|--0-----0---------2-------2-----0--------|
A|--2-----0---------3-------2--------------|
E|--3-----2--------------------------------|

[Intro]

G    Dsus4/F#         Cadd9    Dsus4/F#     

Em7     D     Cadd9    Dsus4/F#


[Verse]

G             Dsus4/F#         Cadd9
Oh Florida, please be still tonight
          Dsus4/F#           Em7
Don't disturb this love of mine
         D  
Look how she's so serene
Cadd9             Dsus4/F#

You've gotta help me out

G               Dsus4/F#        Cadd9
And count the stars to form in lines
              Dsus4/F#           Em7
And find the words we'll sing in time
          D
I want to keep her dreaming
Cadd9                  Dsus4/F#

It's my one wish, I won't forget this


[Pre-chorus]

Cadd9         D
I'm outdated, overrated
Cadd9            Em7  D
Morning seems so far away


[Chorus]

G              D
So I'll sing a melody
  Cadd9 
And hope to God she's listening
Em7               D
Sleeping softly while I sing
G                D
And I'll be your memories
Cadd9
Your lullaby for all the times
Em7              D
Hoping that my voice could get it right


[Solo]

e|--3-----3---------3-------3-----3/2------|
B|--3-----3---------3-------3-----3--------|
G|--0-----2---------0-------0-----2--------|
D|--0-----0---------2-------2-----0--------|
A|--2-----0---------3-------2--------------|
E|--3-----2--------------------------------|


[Verse]

G             Dsus4/F#         Cadd9
If luck is on my side tonight
            Dsus4/F#           Em7
My clumsy tongue will make it right
           D
And wrists that touch
Cadd9              Dsus4/F#
It isn't much, but it's enough
G             Dsus4/F#   Cadd9
To form imaginary lines
            Dsus4/F#           Em7
Forget your scars, we'll forget mine
           D
The hours change so fast
Cadd9              Dsus4/F#
Oh God, please make this last


[Pre-chorus]

Cadd9                D
'Cause I'm outdated, overrated
Cadd9            Em7 D
Morning seems so far way


[Chorus]

G              D
So I'll sing a melody
  Cadd9 
And hope to God she's listening
Em7               D
Sleeping softly while I sing
G                D
And I'll be your memories
Cadd9
Your lullaby for all the times
Em7              D
Hoping that my voice could get it right
Cadd9             D                Cadd9        D
                     Could get it right

[Breakdown]

G          Dsus4/F#
You could crush me
          Cadd9
Please don't crush me
G               D             G
'Cause baby I'm a dreamer for sure
     Dsus4/F#    Cadd9
And I won't let you down
G                 D
I swear this time I mean it


[Chorus]

G              D
So I'll sing a melody
  Cadd9 
And hope to God she's listening
Em7               D
Sleeping softly while I sing
G                D
And I'll be your memories
Cadd9
Your lullaby for all the times
Em7              D
Hoping that my voice could get it right


[Solo]

e|-------------32------------------------------------3-5-3---------------|
B|------3---3----3-----310---------------------------44------------------|
G|----45--45---------45----------4\5/4--454------------------------------|
D|------------------------------------5-----555/7 5----------------------|
A|-----------------------------------------------------------------------|
E|-----------------------------------------------------------------------|


************************************

| /  Slide up
| \  Slide down 

************************************
Suggest correction
comments
print report bad tab
7 comments total. Showing first comments.
0 reply
jae_apple18 10 wrote on November 12 2011, 03:21 am

Awesome! Sounds good!

0 reply
AAlerman 10 wrote on May 21 2012, 12:01 am

what's the strumming pattern? :-)

0 reply
leonardo.d.giro 10 wrote on April 14 2013, 07:02 pm

e|-------------32-------------------------------------------3-5-3---|
B|------3---3----3-----310-----------------------------6-4----------|
G|----45--45---------45------2h4-2-0--2h4-2-0-2h4-2-0---------------|
D|------------------------------------------------------------------|
A|------------------------------------------------------------------|
E|------------------------------------------------------------------|

guest
You may want to rate the tab now too:
select rating
Please do not post tabs as comments. Select "correction" instead!