Oops, an error
Loading. Please wait.

I Swear This Time I Mean It Tab

version 2
version 2

Whole song

Interactive

72,726 views 18 this week
7 commentsread comments
1 2 3 4 5
x 21
add to favorites
×
Save as Personal and add changes to this tab that will be seen only by you. Learn more ›
×
You can save this tab as Personal to edit and correct it or add notes. All changes will be seen only by you. Learn more »
save as personal
new!
launch autoscroll
font size
0
reset
how to read this tab
guitar tuner
Autoscroll
slow
fast
+/-
esc
set tempo
stop
Author
Difficulty
novice
Standard Tuning

[Chords] 
    G - 320033
 F#/G - 200233
Cadd9 - x23033
  Em7 - x22033
    D - xx0232
Dsus4 - xx0233

[Intro] 
(G- F#/G - Cadd9 - G - Em7 - D - Dsus4 - Cadd9 - G)

[Verse 1] 
(G- F#/G - Cadd9 - G - Em7 - D - Dsus4 - Cadd9 - G)(x2)

[Pre-Chorus] 
(Cadd9 Dsus4 D Dsus4 Cadd9 Em7 D Dsus4)

[Chorus] 
(G F#/G Cadd9 Em7 D Dsus4)(x2)

(During solo 'Guitar 1' plays intro.)

[Solo]
e|-------------3-2-----------------------------------------3---3/5-3--|
B|-----3-----3----3-----3----------------------------------3-3-3------|  
G|-4h5---4h5--------4h5---5-4--2h4-2-0---2-4-2---0-0-2h4-2------------|
D|--------------------------------------------------------------------|
A|--------------------------------------------------------------------|
E|--------------------------------------------------------------------|

[Verse 2] 
(G- F#/G - Cadd9 - G - Em7 - D - Dsus4 - Cadd9 - G)(x2)

[Pre-Chorus] 
(Cadd9 Dsus4 D Dsus4 Cadd9 Em7 D Dsus4)

[Chorus] 
(G F#/G Cadd9 Em7 D Dsus4)(x2)

[Break] 
(Cadd9 Dsus4 D Dsus4 Cadd9 Dsus4 D Dsus4)

[Bridge] 
'Guitar 1' (G F#/G Cadd9 Em7 D Dsus4)(x2)

(Pick the "G F#/G Cadd9" then strum 
"Em7 D Dsus4". If you want to pick each string you 
should have 2 guitars. If not, just strum lightly 
and pick the most noticeable notes like the low 
‘E’, ‘G’, “B’ and ‘e’ strings.)

e|---------3-------------------3--------------------3--------|  
B|-----3-----3----3--------3------3----3-------3------3------|
G|-------0------0------------2-------2-------0---0-------0---|
D|---0-----------------0-------------------------------------| 
A|----------------------------------------3------------------|
E|-3----------------2----------------------------------------|

[Chorus] 
(G F#/G Cadd9 Em7 D Dsus4)(x2)
End on 'G'

(Guitar 2)
e|--3-------2-------3-------5-------3-----2-----|
B|----3-x4----3-x4----3-x4----3-x2----3-----3---| (x2 and end on
G|----------------------------------------------| the note 'G' which is
D|----------------------------------------------|3rd fret high 'e' string.)
A|----------------------------------------------|
E|----------------------------------------------|


************************************

| /  Slide up
| h  Hammer-on
| x  Dead note

************************************
Suggest correction
comments
print report bad tab
7 comments total. Showing first comments.
0 reply
epiphreak 72 Nov 08, 2009 09:07 AM

lol,, ima give this five stars. good tab :)

0 reply
smartin11695 10 Aug 02, 2010 07:33 PM

Perfect. 95% sure it's 100% correct. Well done

0 reply
Ilovamyguitar 10 Mar 05, 2011 06:43 AM

Does anyone know the strumming pattern to this?

guest
You may want to rate the tab now too:
select rating
Wanna post a correction for this tab? Suggest correction