Oops, an error
Loading. Please wait.

Id Hate To Be You When People Find Out What This Song Is About Tab

version 2
version 2

Whole song

Interactive

1,544 views 3 this week
no commentswrite comment
1 2 3 4 5
please rate
add to favorites
launch autoscroll
font size
0
reset
how to read this tab
guitar tuner
Autoscroll
slow
fast
+/-
esc
set tempo
stop
Help us to improve Ultimate-Guitar.com Take our survey!
×
Author
Difficulty
intermediate
-----------------------------------------------------------------------------

                     Id Hate To Be You...(Solo) - Mayday Parade
-----------------------------------------------------------------------------
Tabbed by:Aaustin Barron
Email:Aaustin@Sbarron.com

Tuning:Standard(E-A-D-G-B-e)
 I've seen a lot of tabs for this solo, but none of them seemed to be completely correct.
I'm about 99% sure this is perfect. Also, there are a lot of empty spaces because i sort 
of sectioned it out.

e|-----------------------------------10---------10---10h12p10-10---------------------------|
B|--------------------7h8h10p8---7h8----8---7h8----8---------------------------------------|
G|--------------5h7h9----------------------------------------------------------------------|
D|--------5h7h9----------------------------------------------------------------------------|
A|--5h7h9----------------------------------------------------------------------------------|
E|-----------------------------------------------------------------------------------------|

e|-8h10p8p7h8p7p5h7p5---------------------------------------10----10-12-15-12----15p14---14--|
B|----------------------------------------------8---8-10-12----12-------------15-------------|
G|--------------------------------------7---7-9---9------------------------------------------|
D|----------------------------5---5-7-9---9--------------------------------------------------|
A|------------------------5-7---7------------------------------------------------------------|
E|-------------------------------------------------------------------------------------------|
pm|-----------------------*-*-*-*-*-*-*-*----------------------------------------------------|

e|-/12---10h7---------10------------------10-10---------10-10------------------------------|
B|-----------10/12------12p10------/10-12---------/10-12-----------------------------------|
G|----------------------------12-----------------------------------------------------------|
D|-----------------------------------------------------------------------------------------|
A|-----------------------------------------------------------------------------------------|
E|-----------------------------------------------------------------------------------------|

e|-15h12----12p15h12--------------------------------------------12-/19---17---15--|
B|-------15----------15h12--------------------------------/12-15------------------|
G|-------------------------14h12----12h14h12----12-12-----------------------------|
D|-------------------------------14----------14-----------------------------------|
A|--------------------------------------------------------------------------------|
E|--------------------------------------------------------------------------------|





************************************

| /   slide up
| \   slide down
| h   hammer-on
| p   pull-off
| ~   vibrato
| +   harmonic
| x   Mute note
| b   Bend
| pb  Pre-bend
| br  Bend release
| pbr Pre-bend release
| brb Bend release bend

************************************
Suggest correction new What's this?
You can suggest a correction to this tab. Community and Mods will review your correction and vote to approve or reject it.
comments
We did not receive enough feedback on this tab! Please rate:
print report bad tab
1 2 3 4 5
guest
You may want to rate the tab now too:
select rating
Please do not post tabs as comments. Select "correction" instead!