Oops, an error
Loading. Please wait.

Id Hate To Be You When People Find Out What This Song Is About Bass Tab

version 2
version 2

Whole song

Interactive

2,889 views 21 this week
no commentswrite comment
1 2 3 4 5
please rate
add to favorites
launch autoscroll
font size
0
reset
guitar tuner
Autoscroll
slow
fast
+/-
esc
set tempo
stop
Help us to improve Ultimate-Guitar.com Take our survey!
×
Difficulty
novice
------------------------------------------------------------------------------------  
I'd Hate To Be You When People Find Out What This Song Is About by Mayday Parade
------------------------------------------------------------------------------------

Tabbed By : Me
e-mail: tyler_jacoby2@yahoo.com (email me any mistakes or questions)

Tuning: Standard (to do Drop D move everything on the E string down 2 frets...so 5 
in E would be 7 in Drop D :D)

      Into (rest until 0:26) 
G|---------------------------------------------------------------------------|
D|---------------------------------------------------------------------------|
A|--------3333333---------5555555--------3333333-----5~----------------------|
E|-000000---------3333333---------000000---------3-3-------------------------|

      Verse x2
G|---------------------------------------------------------------------------|
D|---------------------------------------------------------------------------|
A|-----3~------5~-----3~-----------------------------------------------------|
E|-00~----33~-----00~----33~-2~----------------------------------------------|

      Chorus x2
G|---------------------------------------------------------------------------|
D|---------------------------------------------------------------------------|
A|-----3333333-----5555555-----3333333---------------------------------------|
E|-0~0---------3~3---------0~0---------3~3-2222222---------------------------|

      Post Chorus
G|---------------------------------------------------------------------------|
D|---------------------------------------------------------------------------|
A|-3333-5555-7777-9999-9--10--12--9~-----------------------------------------|
E|---------------------------------------------------------------------------|

     Verse Again x1

     2nd Verse
G|---------------------------------------------------------------------------|
D|---------------------------------------------------------------------------|
A|----------33333333----------55555555---------3333333-----------------------|
E|-00000000----------33333333----------0000000---------3333333-2222222-------|

     Pre Chorus
G|---------------------------------------------------------------------------|
D|---------------------------------------------------------------------------|
A|-10101010-x-55555555-3333-x-333333333-10101010-x-55555555-3333333333333333-|
E|---------------------------------------------------------------------------|

     Chorus Again x2
     Post Chorus x1

     Pre Solo
G|---------------------------------------------------------------------------|
D|---------------------------------------------------------------------------|
A|-----3~-----5~-----3~----5~------------------------------------------------|
E|-00~----33~----00~---------------------------------------------------------|

     During Solo pt. 1
G|---------------------------------------------------------------------------|
D|---------------------------------------------------------------------------|
A|-----333333-----555555-----333333-----555555-------------------------------|
E|-0~0--------3~3--------0~0--------3~3--------------------------------------|
  
     During Solo pt. 2
G|---------------------------------------------------------------------------|
D|---------------------------------------------------------------------------|
A|-----333333-----555555-----333333------------------------------------------|
E|-0~0--------3~3--------0~0--------3~3-2222222^-----------------------------|


     Ending Chorus x2
G|---------------------------------------------------------------------------|
D|---------------------------------------------------------------------------|
A|----------333333-----------555555--------333333----------------------------|
E|-000000-----------333333-----------000000--------333333-222222-------------|

   Outro is same as Post Chorus 


^ - Bend String
x - mute note
~ - let ring

fun and easy song to play, i hope its right i worked hard on this...well enjoy :D
Suggest correction
Give kudos to tab author, rate the tab!
1 2 3 4 5
comments
print report bad tab
guest
You may want to rate the tab now too:
select rating
Wanna post a correction for this tab? Suggest correction