Oops, an error
Loading. Please wait.

Id Hate To Be You When People Find Out What This Song Is About Tab

version 2
version 2

Whole song

Interactive

29,071 views 21 this week
3 commentsread comments
1 2 3 4 5
please rate
add to favorites
launch autoscroll
font size
0
reset
how to read this tab
guitar tuner
Autoscroll
slow
fast
+/-
esc
set tempo
stop
Help us to improve Ultimate-Guitar.com Take our survey!
×
Author
Difficulty
Tuning
advanced
D A D G B E
Song: I'd Hate To Be You When People Find Out What This Song Is About
By: Mayday Parade
Tuning: DADGBE
Taberr: $K!D
E-mail: painkillerz_57@yahoo.com
Myspace: www.myspace.com/metal_4_lyfe




because of the solo in this song, i've labeled it advanced
but, with a little practice, you should be able to pull it off in no time


props to irishOB







Intro Pt.1
Clean
Lead Guitar
e|-----------------------------------|
B|----3-3--3-3---3-3---3-3-----------|
G|--------------0-0-0-0-0-0----------| x4
D|--2--2--2-2--0-----4---------------|
A|-2-----3---------------------------|
D|-----------------------------------|




Intro Pt.2
Lead Guitar
e|--10----------------------------10------------------10-------------------|
b|-----8-7-8---7------------8-7h8----7h8p8---------8-7-8----7--------------|
G|-----------9---7-5-5-5h7-----------------7--------------9---7-5-5-5h7-7--|
D|-------------------------------------------------------------5-5-7-7~----|
A|-------------------------------------------------------------------------|
D|-------------------------------------------------------------------------|




Intro Pt.2
Distortion
Rhythm Guitar
e|-----------------------------------------|
B|-----------------------------------------|
G|-----------5~-------------------7~-------| x2
D|-2~--------5~---------5~--------7~-------|
A|-2~--------3~---------5~--------5~-------|
D|-2~-------------------5~--------0~-------|




Verse
Clean
Backing Guitar
e|-------------------------------|
B|----3-3--3-3---3-3---3-3-------|
G|--------------0-0-0-0-0-0------| x4
D|--2--2--2-2--0-----4-----------|
A|-2-----3-----------------------|
D|-------------------------------|




Verse Cont.
Lead Guitar
e|----------------------10~-------|
B|-12~-13~---------------10~------|
G|--------------------------------| x2
D|--------------------------------|
A|--------------------------------|
D|-------------------------------|




Chorus
Distorted
Rhythm
e|------------------------------------------|
B|------------------------------------------|
G|-----------5~-------------------7~--------| x2
D|-2~--------5~---------5~--------7~--------|
A|-2~--------3~---------5~--------5~--------|
D|-2~-------------------5~--------0~--------|




Chorus
Distorted
Lead
e|---------------------------------|
B|----3-3--3-3---3-3---3-3---------|
G|--------------0-0-0-0-0-0--------| x4
D|--2--2--2-2--0-----4-------------|
A|-2-----3-------------------------|
D|---------------------------------|




Post Chorus
e|--------------------------------------------|
B|--------------------------------------------|
G|--5----7----9----11----12----14----11~------|
D|--x----x----x----x-----x------x-----x-------|
A|--3----5----7----9-----10----12-----9~------|
D|--------------------------------------------|




Verse2
e|---------------------------------|
B|----3-3--3-3---3-3---3-3---------|
G|--------------0-0-0-0-0-0--------| x2
D|--2--2--2-2--0-----4-------------|
A|-2-----3-------------------------|
D|---------------------------------|




Verse 2 Cont.
Palm Muted
Distorted
e|----------------------------------------------------------------------|
B|----------------------------------------------------------------------|
G|----------5-----------------7-------------------5---------------------| x2
D|-2--------5---------5-------7---------2---------5----------5--------4-|
A|-2--------3---------5-------5---------2---------3----------5--------5-|
D|-2------------------5-----------------2--------------------5--------4-|




Prechorus
e|-----------------------------------|
B|-----------------------------------|
G|-12~----------7~-----------5-5~----| x2
D|-12~----------7~-----------5-5~----| 
A|-10~----------5~-----------3-3~----|
D|-----------------------------------|




Chorus
Distorted
Rhythm
e|--------------------------------------|
B|--------------------------------------|
G|-----------5~-------------------7~----| x4
D|-2~--------5~---------5~--------7~----|
A|-2~--------3~---------5~--------5~----|
D|-2~-------------------5~--------0~----|




Post Chorus
e|--------------------------------------------|
B|--------------------------------------------|
G|--5----7----9----11-----12----14----11~-----|
D|--x----x----x-----x-----x------x-----x------|
A|--3----5----7-----9-----10----12-----9~-----|
D|--------------------------------------------|




Bridge
Clean
Lead Guitar
e|------------------------------|
B|----3-3--3-3---3-3---0-3------|
G|--------------0-0-0-0-0-0-----| x2
D|--2--2--2-2--0-----4----------|
A|-2-----3----------------------|
D|------------------------------|



                                      
then
e|----------------------------------------|
B|----------------------------------------|
G|---7~------p-i-c-k-s-l-i-d-e------------| x2
D|---7~------/////////////////------------| 
A|---5~-----------------------------------|
D|----------------------------------------|




Solo Chords
e|----------------------------------------|
B|----------------------------------------|
G|-----------5~-------------------7~------| x4
D|-2~--------5~---------5~--------7~------|
A|-2~--------3~---------5~--------5~------|
D|-2~-------------------5~--------0~------|




Solo
e|-------10-------10--10/12/10--7h10p8p7h8p7--7------|
B|-8-7-8----8-7-8---8-----------------------10--10~--|
G|---------------------------------------------------|
D|---------------------------------------------------|
A|---------------------------------------------------|
D|---------------------------------------------------|




e|---------------------------0h3-5h7--10-10/12/15/12/10/14~---|
B|-----------------------5h8------------8---------------------|
G|---------------4h7-4h7 -------------------------------------|
D|-------5---5h7----------------------------------------------|
A|-5-5h7--7---------------------------------------------------|
D|------------------------------------------------------------|




e|12^^---------------10-10-------10-10-10/0-----------------[E]10h12-17^---|
B|----10-1010h12-12b13ub12p10----10/12------10/12---10/12------------------|
G|----------------------------12-------------------------------------------|
D|-------------------------------------------------------------------------|
A|-------------------------------------------------------------------------|
D|-------------------------------------------------------------------------|




Final Chorus
e|---------------------------------------|
B|---------------------------------------|
G|-----------5~--------------------7~----| x2
D|-2~--------5~---------5~---------7~----|
A|-2~--------3~---------5~---------5~----|
D|-2~-------------------5~---------0~----|




Outro
e|--------------------------------------------|
B|--------------------------------------------|
G|--5----7----9----11-----12----14----11~-----|
D|--x----x----x-----x-----x------x-----x------|
A|--3----5----7-----9-----10----12-----9~-----|
D|--------------------------------------------|








[E] At this part i just run up the E blues scale
but you can do whatever you want
arpeggios or whatever as long as you endon
 

                     e-------10-----|
                     b---------------|
                this g---------------|
                     d---------------|
                     a---------------|
                     d---------------|



so you can do the little part in the solo at the very end 
where he goes from the 10th fret to the 17th fret and squeels on that note







Legend
---------------
~ let ring
h hammer on
p pull off
^ bend up
/ slide
Suggest correction
Give kudos to tab author, rate the tab!
1 2 3 4 5
comments
print report bad tab
3 comments total.
-2 reply
blake1221 164 wrote on November 13 2008, 08:26 pm

dude wtf?
this is the exact same as the other tab for this song.

-1 reply
painkillerz_57 94 wrote on January 6 2009, 05:25 pm

dude, i know
i just fixed some parts
and posted again

-1 reply
Lissiex 10 wrote on March 28 2009, 05:58 am

it's not right.
Version 3 is correct. And that is how i play it. Blake did a much better job. Nice try, but you just didn't try hard enough.
Sorry.

guest
You may want to rate the tab now too:
select rating
Wanna post a correction for this tab? Suggest correction