Oops, an error
Loading. Please wait.

If You Cant Live Without Me Why Arent You Dead Yet Tab

version 2
version 2

Whole song

8,883 views 15 this week
2 commentsread comments
1 2 3 4 5
excellent!
x 7
add to favorites
launch autoscroll
font size
0
reset
how to read this tab
guitar tuner
Tab Pro tools
  • play this tab
  • loop segment
  • change instrument
  • show fretboard
  • metronome
×
Best way to learn
"If You Cant Live Without Me Why Arent You Dead Yet"
Autoscroll
slow
fast
+/-
esc
set tempo
stop
Contributor
Difficulty
intermediate
Song: If You Can't Live Without Me, Why Are'nt You Dead Yet?
Artist: Mayday Parade
Album: Anywhere But Here
Tuning: Standard

I would like to personally greet my friends in the Philippines, ahaha.. xD
Mamen, TUPC at Cavite, St. Dude College, and more.. xD
and Rox, this song is for you.. xD


Intro:

Lead:
|-----------------------------------------------------------------------------|
|-----------------------------------------------------------------------------|
|----------6-8~-----------6-8/10\8-5-6~-------5-6-----------5-5h6p5-----------|
|-----6h8-----------6h8-------------------6-6----------6-6-----------6~-------|
|-----------------------------------------------------------------------------|
|-----------------------------------------------------------------------------|

|-----------------------------------------------------------------------------|
|-----------------------------------------------------------------------------|
|----------6-8~-----------6-8/10\8-5-7~-------5-6-----------5-5h6p5-----------|
|-----6h8-----------6h8-------------------6-6-----------6-6-----------8~------|
|-----------------------------------------------------------------------------|
|-----------------------------------------------------------------------------|

Rhythm:                                      Then it will be strummed:
|--------------------------------------|--------------------------------------|
|--------------------------------------|--------------------------------------|
|---------------6-6--------------------|------------6666----------------------|
|---8-8----8-8--6-6--4-4----4-4--6-6---|---88888888-6666-4444-4444-6666--8~---|
|---8-8----8-8--4-4--4-4----4-4--6-6---|---88888888-4444-4444-4444-6666--8~---|
|---6-6----6-6-------2-2----2-2--4-4---|---66666666------2222-2222-4444--6~---|

And as the rhythm guitar rings that Bb chord, the other guitar enters with this verse:

Verse:
|-------------------------------------------------|
|-------------------------------------------------|
|-----------------------66666666------------------|
|---88888888--44444444--66666666--66666666----6---|
|---88888888--44444444--44444444--66666666----6---|
|---66666666--22222222------------44444444----4---|
    ........  ........  ........  ........

|--------------------------------------------|
|--------------------------------------------|
|-----------------------66666666-------------|
|---88888888--44444444--66666666--66666666---|
|---88888888--44444444--44444444--66666666---|
|---66666666--22222222------------44444444---|
    ........  ........  ........  ........


Refrain:

Lead:
|------------------------------------------------------------------|
|------------------------------------------------------------------|
|--------------------not figured out yet...------------------------|
|------------------------------------------------------------------|
|------------------------------------------------------------------|
|------------------------------------------------------------------|

Rhythm:
|--------------------------------|
|--------------------------------|
|--------------------------------|
|-----4-4---6-66---88888888------|x2
|-----4-4---6-66---88888888------|
|-----2-2---4-44---66666666------|

|--------------|
|--------------|
|--------------|
|--6666666666--|
|--6666666666--|
|--4444444444--|


Chorus:

Rhythm:
|---------------------------------------------|
|---------------------------------------------|
|-----------------------66666666--------------|
|---88888888--44444444--66666666--6666/7777---|x2
|---88888888--44444444--44444444--6666/7777---|
|---66666666--22222222------------4444/5555---|

Lead:[repeated all-over the Chorus..]     End On:
|----------------------------------------|----------------------|
|----------------------------------------|----------------------|
|--13131313-11111111-10101010-11111111---|--13131313--14141414--|
|----------------------------------------|----------------------|
|----------------------------------------|----------------------|
|----------------------------------------|----------------------|

Interlude:

Rhythm:
|--------------------------------------------|
|--------------------------------------------|
|-----------------------66666666-------------|
|---88888888--44444444--66666666--66666666---|
|---88888888--44444444--44444444--66666666---|
|---66666666--22222222------------44444444---|

Lead:
|-----------------------------------------------------------------------------|
|-----------------------------------------------------------------------------|
|----------6-8~-----------6-8/10\8-5-6~-------5-6-----------5-5h6p5-----------|
|-----6h8-----------6h8-------------------6-6----------6-6-----------8~-------|
|-----------------------------------------------------------------------------|
|-----------------------------------------------------------------------------|

-----------------------------------------------------------------------------|
-----------------------------------------------------------------------------|
----------6-8~-----------6-8/10\8-5-6~-------5-6-----------5-5h6p5h6---------|
-----6h8-----------6h8-------------------6-6----------6-6-------------8~-----|
-----------------------------------------------------------------------------|
-----------------------------------------------------------------------------|



Verse 2:
|-------------------------------------------------|
|-------------------------------------------------|
|-----------------------66666666------------------|
|---88888888--44444444--66666666--66666666----6---|
|---88888888--44444444--44444444--66666666----6---|
|---66666666--22222222------------44444444----4---|
    ........  ........  ........  ........

|--------------------------------------------|
|--------------------------------------------|
|-----------------------66666666-------------|
|---88888888--44444444--66666666--66666666---|
|---88888888--44444444--44444444--66666666---|
|---66666666--22222222------------44444444---|
    ........  ........  ........  ........


Refrain 2:

Lead:
|------------------------------------------------------------------|
|------------------------------------------------------------------|
|--------------------not figured out yet...------------------------|
|------------------------------------------------------------------|
|------------------------------------------------------------------|
|------------------------------------------------------------------|


Rhythm:
|--------------------------------|
|--------------------------------|
|--------------------------------|
|-----4-4---6-66---88888888------|x2
|-----4-4---6-66---88888888------|
|-----2-2---4-44---66666666------|

|--------------|
|--------------|
|--------------|
|--6666666666--|
|--6666666666--|
|--4444444444--|


Chorus:

Rhythm:
|---------------------------------------------|
|---------------------------------------------|
|-----------------------66666666--------------|
|---88888888--44444444--66666666--6666/7777---|x2
|---88888888--44444444--44444444--6666/7777---|
|---66666666--22222222------------4444/5555---|

Lead:
|----------------------------------------|----------------------|
|----------------------------------------|----------------------|
|--13131313-11111111-10101010-11111111---|--13131313--14141414--|
|----------------------------------------|----------------------|
|----------------------------------------|----------------------|
|----------------------------------------|----------------------|

Bridge:

[1st Part]:

Rhythm:
|------------------------------------------------------------------------|
|------------------------------------------------------------------------|
|---------------6-6-------------------------------6-6--------------------|
|---8-8----8-8--6-6--4-4----4-4--6-6--8-8----8-8--6-6--4-4----4-4--6-6---|
|---8-8----8-8--4-4--4-4----4-4--6-6--8-8----8-8--4-4--4-4----4-4--6-6---|
|---6-6----6-6-------2-2----2-2--4-4--6-6----6-6-------2-2----2-2--4-4---|

Lead:
|--------------------------------------------------------------------|
|---------------------------------------9h11-9h11b--9----9h11brb--9--|
|--10b------13b=r10--6h8p6----------------------------10-------------|
|----------------------------8-6-8-----------------------------------|
|--------------------------------------------------------------------|
|--------------------------------------------------------------------|


 -----------------------------------------|
 ----------------16b--14-11----14-11------|
 -10-8-10pb-----------------13------------|
 -----------------------------------------|
 -----------------------------------------|
 -----------------------------------------|


[2nd Part]:

Rhythm:
|--------------------------------------------|
|--------------------------------------------|
|-----------------------66666666-------------|
|---88888888--44444444--66666666--66666666---|
|---88888888--44444444--44444444--66666666---|
|---66666666--22222222------------44444444---|

Lead:
|-10-1313-10-1313-10-1313-10-1313-10-131313-13-1616-13-1616-13-1616-13-1616-|
|---------------------------------------------------------------------------|
|---------------------------------------------------------------------------|
|---------------------------------------------------------------------------|
|---------------------------------------------------------------------------|
|---------------------------------------------------------------------------|

 -13-161616-18-18h2121-18-18h2121-18-18h2121-21h23br21-21-18-21-18---|
 --------------------------------------------------------------------|
 --------------------------------------------------------------------|
 --------------------------------------------------------------------|
 --------------------------------------------------------------------|
 --------------------------------------------------------------------|



Tremolo Part:
|------------------------------16---18\----|
|-----11---13---14---16---18---------------|
|------------------------------------------|
|------------------------------------------|
|------------------------------------------|
|------------------------------------------|
      TP   TP   TP   TP   TP   TP


Chorus :
Rhythm:
|---------------------------------------------|
|---------------------------------------------|
|-----------------------66666666--------------|
|---88888888--44444444--66666666--6666/7777---|x2
|---88888888--44444444--44444444--6666/7777---|
|---66666666--22222222------------4444/5555---|

Lead:
|----------------------------------------|----------------------|
|----------------------------------------|----------------------|
|--13131313-11111111-10101010-11111111---|--13131313--14141414--|
|----------------------------------------|----------------------|
|----------------------------------------|----------------------|
|----------------------------------------|----------------------|

Post-Chorus Adlib:

Rhythm:
|---------------------------------------------|
|---------------------------------------------|
|-----------------------66666666--------------|
|---88888888--44444444--66666666--6666/7777---|
|---88888888--44444444--44444444--6666/7777---|
|---66666666--22222222------------4444/5555---|


Lead:
|------------------------------------------|
|-------11------11-------11----------------|
|-10-10---10-10----10-10----10pbr8p6h8p6---|
|------------------------------------------|
|------------------------------------------|
|------------------------------------------|

Then this:
-------------------------------------------------------------------------------|
-------------------------------------------------------------------------------|
--[     That would be 8 in succesion... Not quite sure here though..    ]------|
--12h14t19p12h14t19p12h14t19p12h14t19p12h14t19p12h14t19p12h14t19p12h14t19------|
-------------------------------------------------------------------------------|
-------------------------------------------------------------------------------|


----------------------------------------------------------------------------|
----------------------------------------------------------------------------|
--18p16p13-18p16p13-18p16p13-18p16p13-18p16p13-18p16p13-18p16p13-18p16p13---|
----------------------------------------------------------------------------|
----------------------------------------------------------------------------|
----------------------------------------------------------------------------|



                             [Here's the fast riff]:
|-13b---11-----11----------------------------------------------------|
|----------14-----14-11------16p14p11-14p11p9-11p9p6-9p6---6---------|
|--------------------------------------------------------8---8-6-----|
|----------------------------------------------------------------8---|
|--------------------------------------------------------------------|
|--------------------------------------------------------------------|




End on:
|-------------------------------------|
|---------------------------6~--------|
|-----------------11~-------6~--------|
|------8~---------11~-------6~--------|
|------8~---------9~--------4~--------|
|------6~-----------------------------|
comments
print report bad tab
2 comments total.
+1 reply
travisguitar1 wrote on March 25 2011, 11:43 pm

great tab ! been waiting for this one for years. damn.
haven't listened to that tapping part there but it sounds quite good enough. just a little adjustments maybe.

all in all great job man.!

0 reply
metal4life235 wrote on April 18 2011, 11:55 pm

-9---9---11---9---7---7---7-8-5-7
---9---9----9---9---7---7--------
--------------------------------- x3
---------------------------------
---------------------------------
---------------------------------

-6---6---6---6---9---11---13
---6---6---6---6---9----9---
----------------------------
----------------------------
----------------------------
----------------------------

Pre-chorus lead

I want to post or [tab]
guest
You may want to rate the tab now too:
select rating
Please do not post tabs as comments. Select "correction" instead!