Oops, an error
Loading. Please wait.

If You Wanted A Song Written About You All You Had To Do Was Ask Bass Tab

version 2
version 2

Whole song

Interactive

13,664 views 24 this week
no commentswrite comment
1 2 3 4 5
accurate
x 10
add to favorites
launch autoscroll
font size
0
reset
guitar tuner
Autoscroll
slow
fast
+/-
esc
set tempo
stop
Help us to improve Ultimate-Guitar.com Take our survey!
×
This is the tab for one of the best Mayday Parade songs ever. The other tab was kinda 
in a few parts, so enjoy this one : )


Intro
G----------------------------------------------------------------|
D----------------------------------------------------------------|
A----------------------------------5-5-5-5-5-5-5-5-5-5-5-5-5-5-5-|
D-5-5-5-5-5-5-5-5-5-5-5-5-5-5-5-7--------------------------------|

"I'm throwing away pictures.."
G----------------------------------------------------------------|
D----------------------------------------------------------------|
A----------------------------------5-5-5-5-5-5-5-5-5-5-5-5-5-5-5-|
D-5-5-5-5-5-5-5-5-5-5-5-5-5-5-5-7--------------------------------|

"And its cold in my apartment..."
G----------------------------------------------------------------|
D----------------------------------------------------------------|
A----------------------------------5-5-5-5-5-5-5-5-5-5-5-5-5-5-5-|
D-5-5-5-5-5-5-5-5-5-5-5-5-5-5-5-7--------------------------------|

"Well its 3 o'clock on Monday.."
G---------------------------------------------------------|
D---------------------------------------------------------|
A-2222222222222-------------------------------------------|
D-------------55555555555555-0000000000000-7777777777777--|

"I've been getting calls in these hotel rooms.."
G---------------------------------------------------------|
D---------------------------------------------------------|
A-2222222222222-------------------------------------------|
D-------------55555555555555-0000000000000-7777777777777--|

CHORUS
"And I hope this makes you happy now..."
G----------------------------------------------------------|
D----------------------------------------------------------|
A--------------------------------------------0000000000000-|
D-00000000000000-55555555555555-4444444444444--------------|

Intro
G----------------------------------------------------------------|
D----------------------------------------------------------------|
A----------------------------------5-5-5-5-5-5-5-5-5-5-5-5-5-5-5-|
D-5-5-5-5-5-5-5-5-5-5-5-5-5-5-5-7--------------------------------|

"And I'm burning all th letters..."
G----------------------------------------------------------------|
D----------------------------------------------------------------|
A----------------------------------5-5-5-5-5-5-5-5-5-5-5-5-5-5-5-|
D-5-5-5-5-5-5-5-5-5-5-5-5-5-5-5-7--------------------------------|

"That she left when she was leaving me..."
G----------------------------------------------------------------|
D----------------------------------------------------------------|
A----------------------------------5-5-5-5-5-5-5-5-5-5-5-5-5-5-5-|
D-5-5-5-5-5-5-5-5-5-5-5-5-5-5-5-7--------------------------------|

"And you dropped a note and we changed key.."
G---------------------------------------------------------|
D---------------------------------------------------------|
A-2222222222222-------------------------------------------|
D-------------55555555555555-0000000000000-7777777777777--|

"And you screamed the bridge..."
G--------------------------------------------------------|
D--------------------------------------------------------|
A-2222222222222------------------------------------------|
D-------------55555555555555-0000000000000-7777777777777-|


CHORUS
"And I hope this makes you happy now..."
G----------------------------------------------------------|
D----------------------------------------------------------|
A--------------------------------------------0000000000000-|
D-00000000000000-55555555555555-4444444444444--------------|

"And I' taking all your memories..."
G--------------------------------------------------------|
D--------------------------------------------------------|
A-2222222222222------------------------------------------|
D-------------55555555555555-0000000000000-7777777777777-|

BRIDGE

"So take me home...
(No bass the first time)

"So take me home...."- Second time

G------------------------------------------------------|
D------------------------------------------------------|
A-2-2-2--2-2-2--------------------------00000000000000-|
D-------------5-5-5--5-5-5-0000000000000---------------|


CHORUS
"And I hope this makes you happy now..."
G----------------------------------------------------------|
D----------------------------------------------------------|
A--------------------------------------------0000000000000-|
D-00000000000000-55555555555555-4444444444444--------------|

"And I' taking all your memories..."
G--------------------------------------------------------|
D--------------------------------------------------------|
A-2222222222222------------------------------------------|
D-------------55555555555555-0000000000000-7777777777777-|

Thats it! it's a fun fun fun song to play and its catchy as hell haha. well thats it. 
questions? E-mail me at Alwaysfalling01@hotmail.com
Suggest correction
comments
print report bad tab
guest
You may want to rate the tab now too:
select rating
Please do not post tabs as comments. Select "correction" instead!