Oops, an error
Loading. Please wait.

Jamie All Over bass

version 1
version 1

Whole song

Interactive

4,717 views 1 this week
no commentswrite comment
1 2 3 4 5
3 more votes to show rating
add to favorites
×
Save as Personal and add changes to this tab that will be seen only by you. Learn more ›
×
You can save this tab as Personal to edit and correct it or add notes. All changes will be seen only by you. Learn more »
launch autoscroll
font size
0
reset
guitar tuner
edit
Autoscroll
slow
fast
+/-
esc
set tempo
stop
Author
Difficulty
-------------------------------------------------------------------------------
			     JAMIE ALL OVER - Mayday Parade
-------------------------------------------------------------------------------

Tabbed By : Jamieallover667

Tuning: G D A E B

This is a great song and fun to play. I realize most of you don't have 5 string basses, 
for all of the low D's you can either play a 5th fret D on the A string or tune your E 
to drop D and figure it out from there. Enjoy!

Guitar Intro

Bass Intro / Verse
G|--------------------------------------------------|
D|----_3_---------_3_-------------------------------|
A|-55-555-55~--44-444-44~------_3_---------_3_------| x2
E|--------------------------33-333-33~--33-333-33~--|
B|--------------------------------------------------|

Pre-Chorus                      1st Time   2nd Time
G|---------------------------- ---------| ---------|
D|---------------------------- ---------| ---------|
A|-22222222-44444444-55555555- ---------| -.-.-----| x2
E|---------------------------- 33333333-| -3-3-----|
B|-------------------------------------------------|

Chorus
G|-----------------------------------------------------------------------|
D|-----------------------------------------------------------------------|
A|-----------------------------------h3-333333-11111111------------------|x2
E|-------------------44444444-4-4-4-4-------------------44444444-4444445-|
B|-33333333-33333333-----------------------------------------------------|

Verse
G|-2nd Time Only------------------------------------|
D|-..|_3_---|-----_3_-------------------------------|
A|-55-555-55~--44-444-44~-----_3_---------_3_-------| x2
E|---|------|--------------33-333-33~--33-333-33~---|
B|---|------|---------------------------------------|

Pre-Chorus                      1st Time   2nd Time
G|---------------------------- ---------| ---------|
D|---------------------------- ---------| ---------|
A|-22222222-44444444-55555555- ---------| -.-.-----| x2
E|---------------------------- 33333333-| -3-3-----|
B|-------------------------------------------------|

Chorus
G|-----------------------------------------------------------------------|
D|-----------------------------------------------------------------------|
A|-----------------------------------h3-333333-11111111------------------|x2
E|-------------------44444444-4-4-4-4-------------------44444444-4444445-|
B|-33333333-33333333-----------------------------------------------------|

Go Immediately to
G|-----------------------------------------------------------------|
D|-----------------------------------------------------------------|
A|-22-222-2p00-000-0h----------h22-222-2p00-000-0h^-^-^---^-^-^----|
E|-------------------3~3~3~3~-3-------------------3-3-3~--5-5-5~---|
B|-----------------------------------------------------------------|

Bridge
G|----------------------------------------------------------|
D|----------------------------------------------------------|
A|-5~-55555555-55555555-4444444-44444444----------^-^-^-----|
E|---------------------------------------33333333-3-3-3~----|
B|----------------------------------------------------------|

Chorus
G|-----------------------------------------------------------------------|
D|-----------------------------------------------------------------------|
A|-----------------------------------h3-333333-11111111------------------|x2
E|-------------------44444444-4-4-4-4-------------------44444444-4444445-|
B|-33333333-33333333-----------------------------------------------------|

Outro
G|----------------------------------------------------------------------|
D|----------------------------------------------------------------------|
A|----------------------------------------------------------------------| x2
E|-----------------h33-333-333-333-3/77-777-7\55-555-5\33-333-333-333~--|
B|-33-333-333-333-3-----------------------------------------------------|

"Down and to the left ..."

|_3_ triplet
| .  staccato                         _
| ^  marcato accent
| /  slide up
| \  slide down
| h  hammer-on
| p  pull-off
| ~  vibrato
| +  harmonic
| x  Mute note
===============================================================================
Suggest correction
Creating personal tab
Creating personal tab
You can edit any tab online and save it as your Personal.

You can edit, replace or remove any tab part or add personal notes – all changes will be seen only by you.

Personal tabs can be accessed anytime from any device, even offline.
Learn more »
Give kudos to tab author, rate the tab!
1 2 3 4 5
comments
print report bad tab
guest
You may want to rate the tab now too:
select rating
Wanna post a correction for this tab? Suggest correction