Oops, an error
Loading. Please wait.

Jamie All Over Tab

version 1
version 1
26,250 views 6 this week
no commentswrite comment
1 2 3 4 5
worth learning
x 5
add to favorites
launch autoscroll
font size
0
reset
how to read this tab
guitar tuner
Autoscroll
slow
fast
+/-
esc
set tempo
stop
Help us to improve Ultimate-Guitar.com Take our survey!
×
Difficulty
intermediate
E--------------------------------------------------------------------|
B--------------------------------------------------------------------|
G-6-6---6-6-6---6-6----8-8---8-8-8---8-8----11-11---11-11-11---11-11-|
D-6-6---6-6-6---6-6----8-8---8-8-8---8-8----11-11---11-11-11---11-11-|
A-4-4---4-4-4---4-4----6-6---6-6-6---6-6----9--9----9--9--9----9--9--|
E--------------------------------------------------------------------|


E--------------------------------------------------------------------|
B--------------------------------------------------------------------|
G-6-6---6-6-6---6-6----5-5---5-5-5---5-5----11-11---11-11-11---11-11-|
D-6-6---6-6-6---6-6----5-5---5-5-5---5-5----11-11---11-11-11---11-11-|
A-4-4---4-4-4---4-4----3-3---3-3-3---3-3----9--9----9--9--9----9--9--|
E--------------------------------------------------------------------|

E------------------------------------------------------------------------| (x2)
B------------------------------------------------------------------------|
G-10-8-10-8-10-8-10-8-----8-6-8-6-8-6-8----------------------------------|
D------------------------------------------------------------------------|
A------------------------------------------------------------------------|
E------------------------------------------------------------------------|
Suggest correction
comments
print report bad tab
guest
You may want to rate the tab now too:
select rating
Wanna post a correction for this tab? Suggest correction