Oops, an error
Loading. Please wait.

Jamie All Over Tab

version 2
version 2
8,904 views 1 this week
2 commentsread comments
1 2 3 4 5
not so good
x 3
add to favorites
launch autoscroll
font size
0
reset
how to read this tab
guitar tuner
Tab Pro tools
  • play this tab
  • loop segment
  • change instrument
  • show fretboard
  • metronome
Autoscroll
slow
fast
+/-
esc
set tempo
stop
Difficulty
intermediate
Guitar 1 and Guitar 2:

E-------------------------------------------------|
B-------------------------------------------------|
G-6-6--6-6-6--6-6---8-8--8-8-8--8-8---------------|
D-6-6--6-6-6--6-6---8-8--8-8-8--8-8---------------|
A-4-4--4-4-4--4-4---6-6--6-6-6--6-6---------------|
E-------------------------------------------------|


E-------------------------------------------------|
B-------------------------------------------------|
G-11-11--11-11-11--11-11---11-11--11-11-11--11-11-|
D-11-11--11-11-11--11-11---11-11--11-11-11--11-11-|
A--9--9---9--9--9---9--9----9--9---9--9--9---9--9-|
E-------------------------------------------------|
Guitar 1 continues playing that, while simultaneously, Guitar 2 plays the below:

E-------------------------------------------------|
B-------------------------------------------------|
G-6-6--6-6-6--6-6---5-5--5-5-5--5-5---------------|
D-6-6--6-6-6--6-6---5-5--5-5-5--5-5---------------|
A-4-4--4-4-4--4-4---3-3--3-3-3--3-3---------------|
E-------------------------------------------------|


E-------------------------------------------------|
B-------------------------------------------------|
G-11-11--11-11-11--11-11---11-11--11-11-11--11-11-|
D-11-11--11-11-11--11-11---11-11--11-11-11--11-11-|
A--9--9---9--9--9---9--9----9--9---9--9--9---9--9-|
E-------------------------------------------------|
comments
We did not receive enough feedback on this tab! Please rate:
print report bad tab
1 2 3 4 5
2 comments total.
0 reply
Nate668 wrote on June 20 2007, 01:18 am

There's a lot more to the song then this.

0 reply
guitar_kid777 wrote on November 15 2007, 09:43 pm

theres much more. and what you put is completely wrong
:( sorry!

I want to post or [tab]
guest
You may want to rate the tab now too:
select rating
Please do not post tabs as comments. Select "correction" instead!