Oops, an error
Loading. Please wait.

Jamie All Over Tab

version 4
version 4
11,003 views 3 this week
1 commentread comment
1 2 3 4 5
accurate
x 4
add to favorites
launch autoscroll
font size
0
reset
how to read this tab
guitar tuner
Tab Pro tools
  • play this tab
  • loop segment
  • change instrument
  • show fretboard
  • metronome
×
Best way to learn
"Jamie All Over"
Autoscroll
slow
fast
+/-
esc
set tempo
stop
Contributor
Difficulty
intermediate
This is one of my first tabs but dont judge me by that, im
a pretty decent guitarist and you should play this tab because
i think its pretty good. This is Jamie All Over by Mayday Parade.

Tuning: Standard
x's: of course palm mute
s: slide



              -VERSE-


E-------------------------------------------------|
B-------------------------------------------------|
G-------------------------------------------------|
D-6-6--6-6-6--x-6---6-6--6-6-6--x-6---------------|
A-4-4--4-4-4--x-4---3-3--3-3-3--x-3---------------|
E-------------------------------------------------|

"I had a dream last night we, drove out to see las vegas"


E-------------------------------------------------|
B-------------------------------------------------|
G-------------------------------------------------|
D-4-4--4-4-4--x-4---4-4--4-4-4--x-4---------------|
A-4-4--4-4-4--x-4---4-4--4-4-4--x-4---------------|
E-2-2--2-2-2--x-2---2-2--2-2-2--x-2---------------|

"We lost ourselves in the bright lights,
I wish you could've seen us."


E-------------------------------------------------|
B-------------------------------------------------|
G-------------------------------------------------|
D-6-6--6-6-6--x-6---6-6--6-6-6--x-6---------------|
A-4-4--4-4-4--x-4---3-3--3-3-3--x-3---------------|
E-------------------------------------------------|

"Beggin for change to get home, or at least
San Fransisco."



E-------------------------------------------------|
B-------------------------------------------------|
G-------------------------------------------------|
D-4-4--4-4-4--x-4---4-4--4-4-4--x-4---------------|
A-4-4--4-4-4--x-4---4-4--4-4-4--x-4---------------|
E-2-2--2-2-2--x-2---2-2--2-2-2--x-2---------------|

"Let's put a ten on the high card, and spend a summer
on the west coast."



           --PRE-CHORUS--


E-------------------------------------------------|
B-------------------------------------------------|
G-------------------------------------------------|
D-3---5---6---4---3---5---6---4-x-4---------------|
A-1---3---4---4---1---3---4---4-x-4---------------|
E-------------2---------------2-x-2---------------|

"Down and to the left, here's a map and a pen the
place you pointed at. Be California's best.
All I ask, All I ask."



-CHORUS-


--Guitar 1--

E--------------------------------------------------------|
B--------------------------------------------------------|
G--------------------------------------------------------|
D-6--------2------2-x-x-2-x-2-2--x-8------6------4-------| <---[x2]
A-4-(x16)--2------2-x-x-2-x-2-2--x-8------6------4-------|
E----------4-(x8)-4-x-x-4-x-4-4--x-6-(x8)-4-(x8)-2-(16x)-|  

"And please don't, tell me, that I'm, dreaming.When all I 
ever wanted was to, dream another sunset with you. If i roll
over, when its over. Ill take this cali sunrise with me,
and wake up with the fondest memories."



--Guitar 2--

E-------------------------------------------------|
B---9---9---9---9---9---9---9---9-----------------|
G-6---6---6---6---6---6---6---6---(x2)------------|
D-------------------------------------------------|
A-------------------------------------------------|  < --
E-------------------------------------------------|      |
                                                         |
"And please dont, tell me that I'm dreaming."      (this whole part--[x2]
                                                         |
E----------------|---------------|------------------|    |
B---9---9---9---9|--7---7---7---7|--6---6---6---6---| <--
G-6---6---6---6--|6---6---6---6--|6---6---6---6-----|
D----------------|---------------|------------------|
A----------------|---------------|-------(x2)-------|
E----------------|---------------|-just this part---|

"When all I ever wanted was to, dream another sunset
with you."

        

        -VERSE-



E-------------------------------------------------|
B-------------------------------------------------|
G-------------------------------------------------|
D-6-6--6-6-6--x-6---6-6--6-6-6--x-6---------------|
A-4-4--4-4-4--x-4---3-3--3-3-3--x-3---------------|
E-------------------------------------------------|

"We made love by the ocean, as the waves crashed 
around you."


E-------------------------------------------------|
B-------------------------------------------------|
G-------------------------------------------------|
D-4-4--4-4-4--x-4---4-4--4-4-4--x-4---------------|
A-4-4--4-4-4--x-4---4-4--4-4-4--x-4---------------|
E-2-2--2-2-2--x-2---2-2--2-2-2--x-2---------------|

"Sunsets never were so bright, and the skies never
so blue."

E-------------------------------------------------|
B-------------------------------------------------|
G-------------------------------------------------|
D-6-6--6-6-6--x-6---6-6--6-6-6--x-6---------------|
A-4-4--4-4-4--x-4---3-3--3-3-3--x-3---------------|
E-------------------------------------------------|

"You opened up into my arms, and we laughed as 
I held you."


E-------------------------------------------------|
B-------------------------------------------------|
G-------------------------------------------------|
D-4-4--4-4-4--x-4---4-4--4-4-4--x-4---------------|
A-4-4--4-4-4--x-4---4-4--4-4-4--x-4---------------|
E-2-2--2-2-2--x-2---2-2--2-2-2--x-2---------------|

"I'll never go back to Georiga, not at least til
I have to."



--PRE-CHORUS--


E-------------------------------------------------|
B-------------------------------------------------|
G-------------------------------------------------|
D-3---5---6---4---3---5---6---4-x-4---------------|
A-1---3---4---4---1---3---4---4-x-4---------------|
E-------------2---------------2-x-2---------------|

"Down and to the left, here's a map and a pen the
place you pointed at. Be California's best.
All I ask, All I ask."


-CHORUS-


--Guitar 1--

E--------------------------------------------------------|
B--------------------------------------------------------|
G--------------------------------------------------------|
D-6--------2------2-x-x-2-x-2-2--x-8------6------4-------| <---[x2]
A-4-(x16)--2------2-x-x-2-x-2-2--x-8------6------4-------|
E----------4-(x8)-4-x-x-4-x-4-4--x-6-(x8)-4-(x8)-2-(16x)-|  

"And please don't, tell me, that I'm, dreaming.When all I 
ever wanted was to, dream another sunset with you. If i roll
over, when its over. Ill take this cali sunrise with me,
and wake up with the fondest memories."



--Guitar 2--

E-------------------------------------------------|
B---9---9---9---9---9---9---9---9-----------------|
G-6---6---6---6---6---6---6---6---(x2)------------|
D-------------------------------------------------|
A-------------------------------------------------|  < --
E-------------------------------------------------|      |
                                                         |
"And please dont, tell me that I'm dreaming."      (this whole part--[x2]
                                                         |
E----------------|---------------|------------------|    |
B---9---9---9---9|--7---7---7---7|--6---6---6---6---| <--
G-6---6---6---6--|6---6---6---6--|6---6---6---6-----|
D----------------|---------------|------------------|
A----------------|---------------|-------(x2)-------|
E----------------|---------------|-just this part---|

"When all I ever wanted was to, dream another sunset
with you."



--BRIDGE--


-Guitar 1-


E-------------------------------------------------------|
B-------------------------------------------------------|
G-------------------------------------------------------|
D--8-8---8-8-8---8-6-6---6-6-6---6-4-4-4-4-x-4-4-4-4-4-4|
A--8-8---8-8-8---8-6-6---6-6-6---6-4-4-4-4-x-4-4-4-4-4-4|
E--6-6---6-6-6---6-4-4---4-4-4---4-2-2-2-2-x-2-2-2-2-2-2|


-Guitar 2-

E-------------------------------------------------|
B------6--4s6s4-----------------------------------|
G----------------6--------------------------------|
D-------------------------------------------------|
A-------------------------------------------------|
E-------------------------------------------------|


-Guitar 1-

E----------------------------------------------------|--------|
B----------------------------------------------------|--------|
G----------------------------------------------------|--------|
D--8-8---8-8-8---8-6-6---6-6-6---6-4-4-4---6-6-6---6-|-4-4-4-4|
A--8-8---8-8-8---8-6-6---6-6-6---6-4-4-4---6-6-6---4-|-4-4-4-4|
E--6-6---6-6-6---6-4-4---4-4-4---4-2-2-2---4-4-4-----|-2-2-2-2|




-----CHORUS------

(you should know it by now)



--OUTRO--

E-------------------------------------------------------------|
B-------------------------------------------------------------|
G-------------------------------------------------------------|
D--6-6---6-6-6---6-6-6---6-6-6---6-4-4---4-4-4---4-4-4---4-4-4|
A--4-4---4-4-4---4-4-4---4-4-4---4-4-4---4-4-4---4-4-4---4-4-4|
E----------------------------------2-2---2-2-2---2-2-2---2-2-2|

"We made love by the ocean, as the waves crashed around you."
(Memories)

E-------------------------------------------------------|
B-------------------------------------------------------|
G-------------------------------------------------------|
D--8-----------6----------4-----------------------------|
A--8-----------6----------4-----------------------------|
E--6-(x8)------4-(x8)-----2-(x16)-----------------------|

"Sunsets never were so bright, and the skies never so blue."
(Memories)


E-------------------------------------------------------------|
B-------------------------------------------------------------|
G-------------------------------------------------------------|
D--6-6---6-6-6---6-6-6---6-6-6---6-4-4---4-4-4---4-4-4---4-4-4|
A--4-4---4-4-4---4-4-4---4-4-4---4-4-4---4-4-4---4-4-4---4-4-4|
E----------------------------------2-2---2-2-2---2-2-2---2-2-2|

"You opened up into my arms, and we laughed as I held you."
(Memories)


E-------------------------------------------------------|
B-------------------------------------------------------|
G-------------------------------------------------------|
D--8-----------6----------4-----------------------------|
A--8-----------6----------4-----------------------------|
E--6-(x8)------4-(x8)-----2-(x16)-----------------------|

"I'll never go back to Georgia, not at least till 
I have to."


"Down and to the left."

-Guitar 1-
E---------|
B---------|
G---------|
D--4-4-4--|
A--4-4-4--|
E--2-2-2--|


-Guitar 2-

E---------|
B---------|
G---------|
D--6-6-6--|
A--4-3-4--|
E---------|


THE END

---Tabbed by Jake Tomlinson---
Add me on myspace---www.myspace.com/my_space_biotch1
-Thanks!-
comments
print report bad tab
1 comment total.
0 reply
kdilnexqo wrote on August 20 2009, 02:20 pm

This is a very good tab. I was listening to the song and viewing the tab at the same time and everything seems to be right (>^_^)>

I want to post or [tab]
guest
You may want to rate the tab now too:
select rating
Please do not post tabs as comments. Select "correction" instead!