Oops, an error
Loading. Please wait.

Jamie All Over Tab

version 5
version 5
159,667 views 105 this week
5 commentsread comments
1 2 3 4 5
excellent!
x 41
add to favorites
launch autoscroll
font size
0
reset
how to read this tab
guitar tuner
Tab Pro tools
  • play this tab
  • loop segment
  • change instrument
  • show fretboard
  • metronome
Autoscroll
slow
fast
+/-
esc
set tempo
stop
Contributor
-------------------------------------------------------------------------------
                        Jamie All Over - Mayday Parade
-------------------------------------------------------------------------------
Tabbed by: Sean Hummer
Email: allstar21369@hotmail.com

Tuning: Standard

This is a great song and this tab is the correct tabbing of it. The others
just have a riff or two but this has the leads and such. Let me know what 
you think.
Enjoy


Intro-
Guitar 1
e|---------------------------------------------------------------------------|
B|---------------------------------------------------------------------------|
G|6-6x--6-6-6x--6-6~---5-5x--5-5-5x--5-5~------------------------------------|
D|6-6x--6-6-6x--6-6~---6-6x--6-6-6x--6-6~------------------------------------|
A|4-4x--4-4-4x--4-4~---3-3x--3-3-3x--3-3~------------------------------------|
E|---------------------------------------------------------------------------|

e|---------------------------------------------------------------------------|
B|---------------------------------------------------------------------------|
G|---------------------------------------------------------------------------|
D|4-4x--4-4-4x--4-4~---4-4x--4-4-4x--4-4~----x2------------------------------|
A|4-4x--4-4-4x--4-4~---4-4x--4-4-4x--4-4~------------------------------------|
E|2-2x--2-2-2x--2-2~---2-2x--2-2-2x--2-2~------------------------------------|



Guitar 2
(In Mayday Parade's version of this song Guitars 1 and 2 are the same but 
live and in Kid Named Chicago's version this is the lead)
e|---------------------------------------------------------------------------|
B|---------------------------------------------------------------------------|
G|6-6--6-6-6--6-6~---8-8--8-8-8--8-8~----------------------------------------|
D|x-x--x-x-x--x-x~---x-x--x-x-x--x-x~----------------------------------------|
A|4-4--4-4-4--4-4~---6-6--6-6-6--6-6~----------------------------------------|
E|---------------------------------------------------------------------------|

e|---------------------------------------------------------------------------|
B|---------------------------------------------------------------------------|
G|11-11--11-11-11--11-11--11-11--11-11-11--11-11~----------------------------|
D|x--x---x--x--x---x--x~--x--x---x--x--x---x--x~----x2-----------------------|
A|9--9---9--9--9---9--9~--9--9---9--9--9---9--9~-----------------------------|
E|---------------------------------------------------------------------------|






Prechorus-
Guitar 1
e|---------------------------------------------------------------------------|
B|---------------------------------------------------------------------------|
G|---3-3-3-3-3-3-3-3--5-5-5-5-5-5-5-5--6-6-6-6-6-6-6-6-----------------------|
D|---3-3-3-3-3-3-3-3--6-6-6-6-6-6-6-6--6-6-6-6-6-6-6-6--4-4-4-4-4-4-4-4---x2-|
A|---1-1-1-1-1-1-1-1--3-3-3-3-3-3-3-3--4-4-4-4-4-4-4-4--4-4-4-4-4-4-4-4------|
E|------------------------------------------------------2-2-2-2-2-2-2-2------|
  PM . . . . . . . .  . . . . . . . .  . . . . . . . .  . . . . . . . .


Guitar 2
e|---------------------------------------------------------------------------|
B|---------------------------------------------------------------------------|
G|---6---6---6---6---5---5---5---3/5-----------------------------------------|
D|-----6---6---6---6---6---6---6-------x4-------4x-4x------------------------|
A|----------------------------------------------4x-4x---(Both end on this)---|
E|----------------------------------------------2x-2x------------------------|
  PM   .   .   .   .   .   .   .






Chorus-
Guitar 1
e|---------------------------------------------------------------------------|
B|---------------------------------------------------------------------------|
G|6--------------------------------3x-3--------------------------------------|
D|6-x16----4-------4-xx-4-x-4-x-4--3x-3-x6----6-------4--------------x2------|
A|4--------4-x8----4-xx-4-x-4-x-4--1x-1-------6-x8----4-x16------------------|
E|---------2-------2-xx-2-x-2-x-2-------------4-------2----------------------|



Guitar 2
e|---------------------------------------------------------------------------|
B|---------------------------------------------------------------------------|
G|6-6-5---6-6-5---6-6-5-6-8---6-6-5---6-6-5---6------6-----8-----6-----------|
D|x-x\x---x-x\x---x-x\x-x/x---x-x\x---x-x\x---x------x-x8--x-x8--x-x12---x2--|
A|4-4-3---4-4-3---4-4-3-4-6---4-4-3---4-4-3---4------4-----6-----4-----------|
E|---------------------------------------------------------------------------|




Guitar 3 (Faint)
e|9-9-9-9-9-9-9-9-9-9-9-9----11-11-11-11----9-9-9-9-9-9-9-9----9-xx-9-x-9-x-9|
B|9-9-9-9-9-9-9-9-9-9-9-9----9--9--9--9-----9-9-9-9-9-9-9-9----9-xx-9-x-9-x-9|
G|---------------------------------------------------------------------------|
D|---------------------------------------------------------------------------|
A|---------(Fast down strokes)-----------------------------------------------|
E|---------------------------------------------------------------------------|

e|9-9-9-9-9-9-9-9--11-11-11-11-11-11-11-11--9-9-9-9-9-9-9-9-9-9-9-9--8-8--4-4|
B|9-9-9-9-9-9-9-9--9--9--9--9--9--9--9--9---9-9-9-9-9-9-9-9-9-9-9-9--9-9--4-4|
G|---------------------------------------------------------------------------|
D|---------------------------------------------------------------------------|
A|-----------------------------------------------------------------------x2--|
E|---------------------------------------------------------------------------|






Bridge-
Guitar 1 (b = Bend the string) (* = These chords are a substitute for the
actual chords used because the real chords require you to tune your guitar
down a half-step)
e|---------------------------------------------------------------------------|
B|---------------------------------------------------------------------------|
G|3-3--3-3-3--3--------------------------------------10-8b-6/8\6\5/6---------|
D|3-3--3-3-3--3-6-6--6-6-6--6-4-4-4-4--4-4-4-4-4-4---------------------------|
A|1-1--1-1-1--1-6-6--6-6-6--6-4-4-4-4--4-4-4-4-4-4---------------------------|
E|--------------4-4--4-4-4--4-2-2-2-2--2-2-2-2-2-2---------------------------|

e|---------------------------------------------------------------------------|
B|---------------------------------------------------------------------------|
G|3-3--3-3-3--3-------------------------------------------6~-----------------|
D|3-3--3-3-3--3-6-6--6-6-6--6-4~--4~--4~----6~--6~--6~----6~-----------------|
A|1-1--1-1-1--1-6-6--6-6-6--6-4~--4~--4~----6~--6~--6~----4~-----------------|
E|--------------4-4--4-4-4--4-2~--2~--2~----4~--4~--4~-----------------------|

e|---------------------------------------------------------------------------|
B|---------------------------------------------------------------------------|
G|---------------------------------------------------------------------------|
D|------(breakdown)-------------------------------------4~--4~--4~-----------|
A|------------------------------------------------------4~--4~--4~-------4~--|
E|------------------------------------------------------2~--2~--2~------*4~--|



Guitar 2
e|---------------------------------------------------------------------------|
B|---------------------------------------------------------------------------|
G|10-10--10-10-10--10-8-8--8-8-8--8-6-6-6-6-6-6--5h6p5-----------------------|
D|x--x---x--x--x---x--x-x--x-x-x--x-x-x-x-x-x-x-------6h8p6------------------|
A|8--8---8--8--8---8--6-6--6-6-6--6-4-4-4-4-4-4-------------8p6--------------|
E|---------------------------------------------------------------------------|

e|---------------------------------------------------------------------------|
B|---------------------------------------------------------------------------|
G|10-10--10-10-10--10-8-8--8-8-8--8-6~--6~--6~----8~--8~--8~----6~-----------|
D|x--x---x--x--x---x--x-x--x-x-x--x-x~--x~--x~----x~--x~--x~----x~-----------|
A|8--8---8--8--8---8--6-6--6-6-6--6-4~--4~--4~----6~--6~--6~----4~-----------|
E|---------------------------------------------------------------------------|

  (This part is picked during the breakdown, with slight distortion)
e|---------------------------------------------------------------------------|
B|--------4-----------------4-----------------4--------------------------2~--|
G|--6---6---6---6-----6---6---6---6-----6---6---6---6-------------------*1~--|
D|----6-------6---------6-------6---------6-------6-----4~--4~--4~-----------|
A|4-----------------6-----------------4-----------------4~--4~--4~-----------|
E|------------------------------------------------------2~--2~--2~-----------|






Outro-
Guitar 1
e|---------------------------------------------------------------------------|
B|---------------------------------------------------------------------------|
G|6-6--5/6-6--5/6-6--5/6-6--8-----6-6--5/6-6--5/6-6--5/6-6--8----------------|
D|x-x--x/x-x--x/x-x--x/x-x--x-----x-x--x/x-x--x/x-x--x/x-x--x----------------|
A|4-4--3/4-4--3/4-4--3/4-4--6-----4-4--3/4-4--3/4-4--3/4-4--6----------------|
E|---------------------------------------------------------------------------|

e|---------------------------------------------------------------------------|
B|---------------------------------------------------------------------------|
G|3----------------------------------------------------6-5-6\----------------|
D|3-x8----6-------4--------------------------x2--------6-6-6\---(Slide down)-|
A|1-------6-x8----4-x16--------------------------------4-3-4\----------------|
E|--------4-------2----------------------------------------------------------|



Guitar 2
e|---------------------------------------------------------------------------|
B|---------------------------------------------------------------------------|
G|10-10--8/10-10--8/10-10--8/10-10--13\10-----10-10--8/10-10--8/10-10--8/10--|
D|x--x---x/x--x---x/x--x---x/x--x---x-\x------x--x---x/x--x---x/x--x---x/x---|
A|8--8---6/8--8---6/8--8---6/8--8---11\8------8--8---6/8--8---6/8--8---6/8---|
E|---------------------------------------------------------------------------|

e|---------------------------------------------------------------------------|
B|---------------------------------------------------------------------------|
G|10--13\10----10-------8-------6----------------------10-8-10\--------------|
D|x---x-\x-----x--x8----x-x8----x-x16--------x2--------x--x-x-\-(Slide down)-|
A|8---11\8-----8--------6-------4----------------------8--6-8-\--------------|
E|---------------------------------------------------------------------------|



| /  slide up
| \  slide down
| h  hammer-on
| p  pull-off
| ~  let ring
| b  bend
| *  substitute
| x  mute note
| +  harmonic
===============================================================================
comments
print report bad tab
5 comments total. Showing first comments.
+1 reply
tom0466 wrote on July 12 2008, 02:17 pm

Good tab, bud.

+1 reply
RichyHowardBass wrote on February 3 2009, 11:18 am

nice one mert

0 reply
-Jake95- wrote on May 26 2009, 03:06 pm

Niceee :)

I want to post or [tab]
guest
You may want to rate the tab now too:
select rating
Please do not post tabs as comments. Select "correction" instead!