Oops, an error
Loading. Please wait.

Last Something That Meant Anything tab

version 4
version 4

Whole song

26,451 views 24 this week
4 commentsread comments
1 2 3 4 5
x 18
add to favorites
×
Save as Personal and add changes to this tab that will be seen only by you. Learn more ›
×
You can save this tab as Personal to edit and correct it or add notes. All changes will be seen only by you. Learn more »
launch autoscroll
font size
0
reset
how to read this tab
guitar tuner
edit
Autoscroll
slow
fast
+/-
esc
set tempo
stop
Author
-------------------------------------------------------------------------------
		  The Last Something That Meant Anything - Mayday Parade
-------------------------------------------------------------------------------
Tabbed by: Dave


_____________________
youtube.com/pur33z
_____________________


This tab has some of the beginning of the lead guitar.
And all the correct chords=]

Tuning:Standard  EADGBe
Enjoy   =]


	Riff 1
e|---------------------------------------------------------------------------|
B|---------------------------------------------------------------0-----------|
G|-7---7---5---5---4---4------------------0-------0------------0---0---------|
D|-5-5-5-5-5-5-5-5-5-5-5--5-/7-5-4------0---0---0---0------0h4-------4-------|
A|---------------------------------5-/7-------7-------7--5-------------5~----|
E|---------------------------------------------------------------------------|

---------------------------------------------------------

Start of guitar 2

e|--------7-5-5---------7-5-5---------7-5-5---------7-10-10------------------|
B|--8---8---------8---8---------8---8---------8---8--------------------------|
G|----7-------------7-------------9-------------7----------------------------|
D|---------------------------------------------------------------------------|
A|---------------------------------------------------------------------------|
E|---------------------------------------------------------------------------|


e|---------------------------------------------------------------------------|
B|--8---8---8---8---10-8---7h8------8/10-10/12-7-8---8/10-10/12-7-8----------|
G|----7-------7----------7---------------------------------------------------|
D|---------------------------------------------------------------------------|
A|---------------------------------------------------------------------------|
E|---------------------------------------------------------------------------|


e|--7-7----------------------------------------------------------------------|
B|-------10-10-8---7-8-7-8-7----8/10-10/12-7-8----8/10-10/12-7h8-------------|
G|---------------7-----------------------------------------------7-----------|
D|---------------------------------------------------------------------------|
A|---------------------------------------------------------------------------|
E|---------------------------------------------------------------------------|


e|--------7-5-5---------7-5-5---------7-5-5---------7-8-10-------------------|
B|--8---8---------8---8---------8---8---------8---8--------------------------|
G|----7-------------7-------------9-------------7----------------------------|
D|---------------------------------------------------------------------------|
A|---------------------------------------------------------------------------|
E|---------------------------------------------------------------------------|

e|--------7-5-5----------7-5-5-----------7-5-5-3-3~--------------------------|
B|--8---8---------8-7-8----------8---8---------------------------------------|
G|----7----------------------------9-----------------------------------------|
D|---------------------------------------------------------------------------|
A|---------------------------------------------------------------------------|
E|---------------------------------------------------------------------------|


CHORDS

C- x32033
D- (2)00232
Em- 022033
G- 320033
D*- x577xx
Dsharp- x698xx

Riff 1^^

Well I thought that we could sit around and talk for hours

About things I couldn't say to you

And things that we could never do and,
 
This conversation has had no face

When the words take days you can re-write and erase anything



C                           D

You know my heart (so tell me honestly do you ever really want this)

Em                    G

Knows all these parts...



Riff 1^^


And I'll borrow words from all my favorite paragraphs

To write a ballad while we say the things

We hope would mean the most to me

And 
Each line is sent I have found a new pages of hope for the days when I 
like I've lost everything



C                   D

You know my heart (so tell me honestly do you ever really want this)

Em          G

Knows all these parts (cause my jealous heart can't take that)

C            D*       Dsharp       Em        D                            C

So I'll sing this song for every word that's come out lost


Bm              C

But, I'll be ok (Is that what you want me to say?)

Em
 
It's called breakup

D

Cause it's broken




Same^^


Yeah I'll be ok (Is that what you want me to say?)

It's called breakup

Cause it's broken




Same^^


I'll be ok

Is that what you want me to say?

It's called breakup

Cause it's broken
[Repeats]



Same^^


I'll be ok, is that what you want me to say?

It's called breakup

Cause it's broken



Same^^ EXCEPT THERE'S NO D#!!!


And you were just about to tell me

How you meant that you were sorry

And the lines we've said that

Never meant the world to you

Wrote me down lets keep it slow

Take every note and every page that takes you longer

The cherry flavored kisses

Well I taste them

Do you miss it?



Same^^


I'll be ok

Is that what you want me to say?

It's called breakup

Cause it's broken
[X2]



Rest is Riff 1 ^^


Well I thought that we could sit around and talk for hours

About things I couldn't say to you

And things that we could never do

| /  slide up
| \  slide down
| h  hammer-on
| p  pull-off
| ~  vibrato
| +  harmonic
| x  Mute note

            
            
Suggest correction
Creating personal tab
Creating personal tab
You can edit any tab online and save it as your Personal.

You can edit, replace or remove any tab part or add personal notes – all changes will be seen only by you.

Personal tabs can be accessed anytime from any device, even offline.
Learn more »
comments
print report bad tab
4 comments total. Showing first comments.
0 reply
jbrek 10 Jan 21, 2010 01:03 PM

finally a correct guitar two thank you

0 reply
PlaneCrashDream 30 Jun 27, 2010 04:47 AM

wheres the solo bit? :(

0 reply
jazminc019 25 May 28, 2015 07:43 PM

what's "same" ._.

guest
You may want to rate the tab now too:
select rating
Wanna post a correction for this tab? Suggest correction