Oops, an error
Loading. Please wait.

Lets Be Honest bass

289 views 1 this week
2 commentsread comments
1 2 3 4 5
x 3
add to favorites
×
Save as Personal and add changes to this tab that will be seen only by you. Learn more ›
×
You can save this tab as Personal to edit and correct it or add notes. All changes will be seen only by you. Learn more »
launch autoscroll
font size
0
reset
guitar tuner
edit
Autoscroll
slow
fast
+/-
esc
set tempo
stop
Song:   Let’s Be Honest
Artist: Mayday Parade
Album:  Black Lines
Tuning: Drop D (D A D G)

Intro:
  1   2   3   4    1   2   3   4    1   2   3   4    1   2   3   4   
G|----------------|----------------|----------------|----------------|
D|----------------|----------------|----------------|----------------|
A|----------------|----------------|----------------|0-0-0-0---------|
D|2-4---2-4---2-4-|4-2-4---2-4---2-|4---2-4---2-4---|--------2-2-2-2-|

  1   2   3   4    1   2   3   4    1   2   3   4    1   2   3   4   
G|----------------|----------------|----------------|----------------|
D|----------------|----------------|----------------|----------------|
A|----------------|----------------|----------------|----------------|
D|2-4---2-4---2-4-|4-2-4---2-4---2-|4---2-4---2-4---|----------------|

Verse 1: “This is a warning…”
  1   2   3   4    1   2   3   4    1   2   3   4    1   2   3   4   
G|----------------|----------------|----------------|----------------|
D|----------------|----------------|----------------|----------------|
A|----------------|----------------|----------------|----------------| x2
D|0000000000000000|0000000000000000|4444444444444444|4444444444444444|

  1   2   3   4    1   2   3   4    1   2   3   4    1   2   3   4   
G|----------------|----------------|----------------|----------------|
D|0000000000000000|0000000000000000/4444444444444444|4444444444444444\
A|----------------|----------------|----------------|----------------|
D|----------------|----------------|----------------|----------------|

  1   2   3   4    1   2   3   4    1   2   3   4    1   2   3   4   
G|----------------|----------------|----------------|----------------|
D|0000000000000000|0000000000000000/4444444444444---|----------------|
A|----------------|----------------|----------------|----------------|
D|----------------|----------------|--------------4-|--4---2---2-----|

Chorus 1: “I’m a sinking ship…”
  1   2   3   4    1   2   3   4    1   2   3   4    1   2   3   4   
G|----------------|----------------|----------------|----------------|
D|----------------|----------------|----------------|----------------|
A|----------------|----------------|----------------|0---0---0-0-0-0-|
D|0---0---0---0---|2---2---2---2-2-|4---4---4---4---|----------------|

  1   2   3   4    1   2   3   4    1   2   3   4    1   2   3   4   
G|----------------|----------------|----------------|----------------|
D|----------------|----------------|----------------|----------------|
A|----------------|----------------|----------------|----------------|
D|0---0---0---0---|2---2---2-2-2-2-|2-4-4-2-4-4-2-4-|4-2-4-4-2-4-4-4-|

  1   2   3   4    1   2   3   4    1   2   3   4    1   2   3   4   
G|----------------|----------------|----------------|----------------|
D|----------------|----------------|----------------|----------------|
A|----------------|----------------|----------------|0---0---0-0-0-0-|
D|0---0---0---0---|2---2---2---2-2-|4---4---4---4---|----------------|

  1   2   3   4    1   2   3   4    1   2   3   4    1   2   3   4   
G|----------------|----------------|----------------|----------------|
D|----------------|----------------|----------------|----------------|
A|----------------|----------------|----------------|----------------|
D|0---0---0---0---|2---------------|0---------------|----------------|
  1   2   3   4    1   2   3   4  
G|----------------|----------------|
D|----------------|----------------|
A|----------------|----------------|
D|4---------------|----------------|

Verse 2: “Another warning…”
  1   2   3   4    1   2   3   4    1   2   3   4    1   2   3   4   
G|----------------|----------------|----------------|----------------|
D|----------------|----------------|----------------|----------------|
A|----------------|----------------|----------------|----------------| x2
D|0000000000000000|0000000000000000|4444444444444444|4444444444444444|

  1   2   3   4    1   2   3   4    1   2   3   4    1   2   3   4   
G|----------------|----------------|----------------|----------------|
D|0000000000000000|0000000000000000/4444444444444444|4444444444444444\
A|----------------|----------------|----------------|----------------|
D|----------------|----------------|----------------|----------------|

  1   2   3   4    1   2   3   4    1   2   3   4    1   2   3   4   
G|----------------|----------------|----------------|----------------|
D|0000000000000000|0000000000000000/4444444444444444|4444444444444---|
A|----------------|----------------|----------------|-------------4--|
D|----------------|----------------|----------------|--------------4-|

  1   2   3   4    1   2   3   4    1   2   3   4    1   2   3   4   
G|----------------|----------------|----------------|----------------|
D|--------------4-|----------------|--------------2-|----------------|
A|------------4---|----------------|------------2---|----------------|
D|4---------------|----------------|2---------------|----------------|

  1   2   3   4    1   2   3   4    1   2   3   4    1   2   3   4   
G|--------------2-|----------------|--------------6-|6-6-6-6-464-2---|
D|------------2---|----------------|------------6---|----------------|
A|0---------------|----------------|4---------------|----------------|
D|----------------|----------------|----------------|----------------|

Chorus 2: “I’m a sinking ship…”
  1   2   3   4    1   2   3   4    1   2   3   4    1   2   3   4   
G|----------------|----------------|----------------|----------------|
D|----------------|----------------|----------------|----------------|
A|----------------|----------------|----------------|0---0---0-0-0-0-|
D|0---0---0---0---|2---2---2---2-2-|4---4---4---4---|----------------|

  1   2   3   4    1   2   3   4    1   2   3   4    1   2   3   4   
G|----------------|----------------|----------------|----------------|
D|----------------|----------------|----------------|----------------|
A|----------------|----------------|----------------|----------------|
D|0---0---0---0---|2---2---2-2-2-2-|2-4-4-2-4-4-2-4-|4-2-4-4-2-4-4-4-|

  1   2   3   4    1   2   3   4    1   2   3   4    1   2   3   4   
G|----------------|----------------|----------------|----------------|
D|----------------|----------------|----------------|----------------|
A|----------------|----------------|----------------|0---0---0-0-0-0-|
D|0---0---0---0---|2---2---2---2-2-|4---4---4---4---|----------------|

  1   2   3   4    1   2   3   4
G|----------------|----------------|
D|----------------|----------------|
A|----------------|----------------|
D|0---0---0---0---|2---------------|

Bridge: “I bet I bet you believe…”
  1   2   3   4    1   2   3   4    1   2   3   4    1   2   3   4   
G|----------------|----------------|----------------|----------------|
D|----------------|----------------|----------------|----------------|
A|----------------|----------------|----------------|----------------|
D|2-4---2-4---2-4-|4-2-4---2-4---2-|4---2-4---2-4---|2-4---2-4---2-4-|

  1   2   3   4    1   2   3   4    1   2   3   4    1   2   3   4   
G|----------------|----------------|----------------|----------------|
D|----------------|----------------|----------------|----------------|
A|----------------|----------------|----------------|0-0-0-0---------|
D|--2-4---2-4---2-|4---2-4---2-4---|2-4---2-4---2-4-|--------2-2-2-2-|

  1   2   3   4    1   2   3   4    1   2   3   4    1   2   3   4   
G|----------------|----------------|----------------|----------------|
D|----------------|----------------|----------------|----------------|
A|----------------|----------------|----------------|0-0-0-0---------|
D|--2-4---2-4---2-|4-4-2-4---2-4---|2-4---2-4---2-4-|--------2-2-2-2-|
 
  1   2   3   4    1   2   3   4    1   2   3   4    1   2   3   4   
G|----------------|----------------|----------------|----------------|
D|----------------|----------------|----------------|----------------|
A|----------------|----------------|----------------|----------------|
D|0---------------|2-----------2---|4---------------|4-4-------------|

  1   2   3   4    1   2   3   4    1   2   3   4    1   2   3   4   
G|----------------|----------------|----------------|----------------|
D|----------------|----------------|----------------|3-3-3-3-3-333333|
A|----------------|----------------|----------------|----------------|
D|0---------------|2-----------2---|3---3---3---3---|----------------|

Final Chorus: “I’m a sinking ship…”
  1   2   3   4    1   2   3   4    1   2   3   4    1   2   3   4   
G|----------------|----------------|----------------|----------------|
D|----------------|----------------|----------------|----------------|
A|----------------|----------------|----------------|0-0-0-0-0-0-0-0-|
D|0-0-0-0-0-0-0-0-|2-2-2-2-2-2-2-2-|2-4-4-2-4-4-2-4-|----------------|

  1   2   3   4    1   2   3   4    1   2   3   4    1   2   3   4   
G|----------------|----------------|----------------|----------------|
D|----------------|----------------|----------------|----------------|
A|----------------|----------------|----------------|----------------|
D|0-0-0-0-0-0-0-0-|2-2-2-2-2-2-2-2-|2-4-4-2-4-4-2-4-|4-2-4-4-2-4-4-4-|

  1   2   3   4    1   2   3   4    1   2   3   4    1   2   3   4   
G|----------------|----------------|----------------|----------------|
D|----------------|----------------|----------------|----------------|
A|----------------|----------------|----------------|0-0-0-0-0-0-0-0-|
D|0-0-0-0-0-0-0-0-|2-2-2-2-2-2-2-2-|2-4-4-2-4-4-2-4-|----------------|

  1   2   3   4    1   2   3   4    
G|----------------|----------------|
D|----------------|----------------|
A|----------------|----------------|
D|0-0-0-0-0-0-0-0-|2---------------|
 
Outro:
  1   2   3   4    1   2   3   4    1   2   3   4    1   2   3   4   
G|----------------|----------------|----------------|----------------|
D|----------------|----------------|----------------|----------------|
A|----------------|----------------|----------------|----------------|
D|2-4-4-2-4-4-2-4-|4-2-4-4-2-4---2-|4-4-2-4-4-2-4-4-|2-4-4-2-4-4-2-4-|

Ending: No Bass


**Not 100% accurate. Please let me know if I should change something.**
Suggest correction
Creating personal tab
Creating personal tab
You can edit any tab online and save it as your Personal.

You can edit, replace or remove any tab part or add personal notes – all changes will be seen only by you.

Personal tabs can be accessed anytime from any device, even offline.
Learn more »
Give kudos to tab author, rate the tab!
1 2 3 4 5
comments
print report bad tab
2 comments total.
+1 reply
tjcajk 10 Nov 02, 2015 04:12 PM

Seems pretty fucking good to me:) Great tab. I would love to see you tab some other stuff off of "Black Lines" like "Keep in Mind..." or "Letting Go"

guest
You may want to rate the tab now too:
select rating
Wanna post a correction for this tab? Suggest correction