Oops, an error
Loading. Please wait.

Lets Be Honest tab

685 views 3 this week
no commentswrite comment
1 2 3 4 5
3 more votes to show rating
add to favorites
×
Save as Personal and add changes to this tab that will be seen only by you. Learn more ›
×
You can save this tab as Personal to edit and correct it or add notes. All changes will be seen only by you. Learn more »
launch autoscroll
font size
0
reset
how to read this tab
guitar tuner
edit
Autoscroll
slow
fast
+/-
esc
set tempo
stop
-------------------------------------------------------------------------------
                             Let's Be Honest - Mayday Parade
-------------------------------------------------------------------------------
Tabbed by: CabiKJS0925

Tuning: Drop D

Guitar 1

Intro

e|--------------------------------------------------|
B|--------------------------------------------------|
G|--------------------------------------------------|
D|-----------------------------------7-7-7-7-2-2-2--|
A|-----------------------------------7-7-7-7-2-2-2--|
D|-2-4-2-4-2-4-4-2-4-2-4-2-4-2-4-2-4-7-7-7-7-2-2-2--|

e|------------------------------------|
B|------------------------------------|
G|------------------------------------|
D|------------------------------------|
A|------------------------------------|
D|-2-4-2-4-2-4-4-2-4-2-4-2-4-2-4-2-4--|

Verse 1

e|----------------|    |---------------------------|
B|----------------|    |---------------------------| 
G|----------------|    |---------------------------|
D|----------------| x3 |---------------4--4--2--2--|
A|----------------|    |---------------4--4--2--2--|
D|-0(x32)-4(x32)--|    |-0(x32)-4(x13)-4--4--2--2--|
   palm muted             palm muted

Chorus 1 

e|----------------------------------------------------------------------------------|
B|----------------------------------------------------------------------------------|
G|----------------------------------------------------------------------------------|
D|-0-0-0-0-2-2-2-2-4-4-4-4-7-7-7-7-0-0-0-0-2-2-2-2----------------------------------|
A|-0-0-0-0-2-2-2-2-4-4-4-4-7-7-7-7-0-0-0-0-2-2-2-2----------------------------------|
D|-0-0-0-0-2-2-2-2-4-4-4-4-7-7-7-7-0-0-0-0-2-2-2-2-2-4-4-2-4-4-2-4-4-2-4-4-2-4-4-4--|

e|----------------------------------------------------------|
B|----------------------------------------------------------|
G|----------------------------------------------------------|
D|-0-0-0-0-2-2-2-2-4-4-4-4-7-7-7-7-0-0-0-0-2------0------4--|
A|-0-0-0-0-2-2-2-2-4-4-4-4-7-7-7-7-0-0-0-0-2------0------4--|
D|-0-0-0-0-2-2-2-2-4-4-4-4-7-7-7-7-0-0-0-0-2------0------4--|

Verse 2

e|----------------|    |------------------------------------------------|
B|----------------|    |------------------------------------------------| 
G|----------------|    |------------------------------------------------|
D|----------------| x4 |-4----2----7----11--11-11-11-11-11-11-11-11-11--|
A|----------------|    |-4----2----7----11--11-11-11-11-11-11-11-11-11--|
D|-0(x32)-4(x32)--|    |-4----2----7----11--11-11-11-11-11-11-11-11-11--|
   palm muted             

Chorus 2

e|----------------------------------------------------------------------------------|
B|----------------------------------------------------------------------------------|
G|----------------------------------------------------------------------------------|
D|-0-0-0-0-2-2-2-2-4-4-4-4-7-7-7-7-0-0-0-0-2-2-2-2----------------------------------|
A|-0-0-0-0-2-2-2-2-4-4-4-4-7-7-7-7-0-0-0-0-2-2-2-2----------------------------------|
D|-0-0-0-0-2-2-2-2-4-4-4-4-7-7-7-7-0-0-0-0-2-2-2-2-2-4-4-2-4-4-2-4-4-2-4-4-2-4-4-4--|

e|--------------------------------------------|
B|--------------------------------------------|
G|--------------------------------------------|
D|-0-0-0-0-2-2-2-2-4-4-4-4-7-7-7-7-0-0-0-0-2--|
A|-0-0-0-0-2-2-2-2-4-4-4-4-7-7-7-7-0-0-0-0-2--|
D|-0-0-0-0-2-2-2-2-4-4-4-4-7-7-7-7-0-0-0-0-2--|

Bridge 

e|----------------------------------------------------------------------------------------------|
B|----------------------------------------------------------------------------------------------|
G|----------------------------------------------------------------------------------------------|
D|-------------------------------------------------------------------------------7-7-7-7-2-2-2--|
A|-------------------------------------------------------------------------------7-7-7-7-2-2-2--|
D|-2-4-2-4-2-4-4-2-4-2-4-2-4-2-4-2-4-2-4-2-4-2-4-2-4-2-4-2-4-2-4-2-4-2-4-2-4-2-4-7-7-7-7-2-2-2--|

e|----------------------------------------------------------------------------------------------------------|
B|----------------------------------------------------------------------------------------------------------|
G|----------------------------------------------------------------------------------------------------------|
D|-----------------------------------7-7-7-7-2-2-2-0-------2-------4-------0-------2-------3-3-3-3-3-3-3-3--|
A|-----------------------------------7-7-7-7-2-2-2-0-------2-------4-------0-------2-------3-3-3-3-3-3-3-3--|
D|-2-4-2-4-2-4-4-2-4-2-4-2-4-2-4-2-4-7-7-7-7-2-2-2-0-------2-------4-------0-------2-------3-3-3-3-3-3-3-3--|

Chorus 3 

e|----------------------------------------------|
B|----------------------------------------------|
G|----------------------------------------------|
D|-0-0-0-0-0-0-0-0-2-2-2-2-2-2-2-2-2-4-2-4-2-4--|
A|-0-0-0-0-0-0-0-0-2-2-2-2-2-2-2-2-2-4-2-4-2-4--|
D|-0-0-0-0-0-0-0-0-2-2-2-2-2-2-2-2-2-4-2-4-2-4--|

e|--------------------------------------------------------------------------------|
B|--------------------------------------------------------------------------------|
G|--------------------------------------------------------------------------------|
D|-7-7-7-7-7-7-7-7-0-0-0-0-0-0-0-0-2-2-2-2-2-2-2-2--------------------------------|
A|-7-7-7-7-7-7-7-7-0-0-0-0-0-0-0-0-2-2-2-2-2-2-2-2--------------------------------|
D|-7-7-7-7-7-7-7-7-0-0-0-0-0-0-0-0-2-2-2-2-2-2-2-2-4-4-2-4-4-2-4-4-2-4-4-2-4-4-4--|

e|----------------------------------------------|
B|----------------------------------------------|
G|----------------------------------------------|
D|-0-0-0-0-0-0-0-0-2-2-2-2-2-2-2-2-2-4-2-4-2-4--|
A|-0-0-0-0-0-0-0-0-2-2-2-2-2-2-2-2-2-4-2-4-2-4--|
D|-0-0-0-0-0-0-0-0-2-2-2-2-2-2-2-2-2-4-2-4-2-4--|

e|------------------------------------|
B|------------------------------------|
G|------------------------------------|
D|-7-7-7-7-7-7-7-7-0-0-0-0-0-0-0-0-2--|
A|-7-7-7-7-7-7-7-7-0-0-0-0-0-0-0-0-2--|
D|-7-7-7-7-7-7-7-7-0-0-0-0-0-0-0-0-2--|

Final

e|------------------------------------------------|
B|------------------------------------------------|
G|------------------------------------------------|
D|------------------------------------------------|
A|------------------------------------------------|
D|-2-4-2-4-2-4-4-2-4-2-4-2-4-2-4-2-4-2-4-2-4-2-4--|

e|-0------------------2---------------------------0-----|
B|-0------------------3---------------------------2-----|
G|-1------------------2---------------------------2-----|
D|-2------------------4---------------------------2-----|
A|-2----------------------------------------------0-----|
D|-0----------------------------------------------0-----|

Not very sure about those chords, but I think they could be similar to the correct ones 

Guitar 2

Intro

e|--------------------------------------------------------------------------|
B|--------------------------------------------------------------------------|
G|-6-6-6-6-6-6-6-6-6-6-6-6-6-6-6-6-5-5-5-5-6-6-6-6-6-6-6-6-9-9-9-9-5-5-5-5--|
D|-x-x-x-x-x-x-x-x-x-x-x-x-x-x-x-x-x-x-x-x-x-x-x-x-x-x-x-x-x-x-x-x-x-x-x-x--|
A|-4-4-4-4-4-4-4-4-4-4-4-4-4-4-4-4-3-3-3-3-4-4-4-4-4-4-4-4-7-7-7-7-3-3-3-3--|
D|--------------------------------------------------------------------------|

e|----------------------------------------------------------|
B|----------------------------------------------------------|
G|-6-6-6-6-6-6-6-6-6-6-6-6-6-6-6-6-5-5-5-5-6-6-6-6-6-6-6-6--|
D|-x-x-x-x-x-x-x-x-x-x-x-x-x-x-x-x-x-x-x-x-x-x-x-x-x-x-x-x--|
A|-4-4-4-4-4-4-4-4-4-4-4-4-4-4-4-4-3-3-3-3-4-4-4-4-4-4-4-4--|
D|----------------------------------------------------------|

Verse 1 

  "I've got the bad, bad feeling..."
e|-----------------------------------|     |-----------------------------------|
B|-----------------------------------|(x3) |-----------------------------------|
G|-14-14-14-14-14-14-14-14\13-13-13--|     |-14-14-14-14\18-16-14-13-14-13-14--|
D|-x--x--x--x--x--x--x--x--x--x--x---|     |-x--x--x--x------------------------|
A|-12-12-12-12-12-12-12-12\11-11-11--|     |-12-12-12-12-----------------------|
D|-----------------------------------|     |-----------------------------------|

Chorus 1 

e|----------9----------------------------------------9-------10-------9-----------|
B|----10------10----10----10----12-10----10----10------10-------10------10----10--|
G|-11----11------11----11----11-------11----11----11------11-------11------11-----|
D|--------------------------------------------------------------------------------|
A|--------------------------------------------------------------------------------|
D|--------------------------------------------------------------------------------|

e|----------9-------------------------------|
B|----10------10----10----10----12-10---10--|
G|-11----11------11----11----11-------11----|
D|------------------------------------------|
A|------------------------------------------|
D|------------------------------------------|

e|----------9----------------------------------------9-------10-------9-----------|
B|----10------10----10----10----12-10----10----10------10-------10------10----10--|
G|-11----11------11----11----11-------11----11----11------11-------11------11-----|
D|--------------------------------------------------------------------------------|
A|--------------------------------------------------------------------------------|
D|--------------------------------------------------------------------------------|

e|----------9-------------------7-------------17----------19-17----------|
B|----10------10----10----10-------------15-----------17----------15-14--|
G|-11----11------11----11----11------------------------------------------|
D|-----------------------------------------------------------------------|
A|-----------------------------------------------------------------------|
D|-----------------------------------------------------------------------|

Verse 2

e|-----------------------------------|     
B|-----------------------------------|(x4)
G|-14-14-14-14-14-14-14-14\13-13-13--|     
D|-x--x--x--x--x--x--x--x--x--x--x---|     
A|-12-12-12-12-12-12-12-12\11-11-11--|    
D|-----------------------------------|  


e|----------------------------------------------------------------16(x6)-17(x4)-|
B|-15(x8)-14(x8)-17(x8)--------15(x2)-14(x2)-15(x8)-14(x8)-17(x6)---------------|
G|----------------------14(x4)--------------------------------------------------|
D|------------------------------------------------------------------------------|
A|------------------------------------------------------------------------------|
D|------------------------------------------------------------------------------|

Chorus 2

e|----------9----------------------------------------9-------10-------9-----------|
B|----10------10----10----10----12-10----10----10------10-------10------10----10--|
G|-11----11------11----11----11-------11----11----11------11-------11------11-----|
D|--------------------------------------------------------------------------------|
A|--------------------------------------------------------------------------------|
D|--------------------------------------------------------------------------------|

e|----------9-------------------------------|
B|----10------10----10----10----12-10---10--|
G|-11----11------11----11----11-------11----|
D|------------------------------------------|
A|------------------------------------------|
D|------------------------------------------|

e|----------9----------------------------------------9-------10-------9-----------|
B|----10------10----10----10----12-10----10----10------10-------10------10----10--|
G|-11----11------11----11----11-------11----11----11------11-------11------11-----|
D|--------------------------------------------------------------------------------|
A|--------------------------------------------------------------------------------|
D|--------------------------------------------------------------------------------|

e|----------9-----------------------|
B|----10------10----10----10----12--|
G|-11----11------11----11----11-----|
D|----------------------------------|
A|----------------------------------|
D|----------------------------------|

Bridge

e|------------------------------------------|
B|------------------------------------------|
G|-6-6-6-6-6-6-6-6-6-6-6-6-6-6-6-6-5-5-5-5--|
D|-x-x-x-x-x-x-x-x-x-x-x-x-x-x-x-x-x-x-x-x--|(x3)
A|-4-4-4-4-4-4-4-4-4-4-4-4-4-4-4-4-3-3-3-3--|
D|------------------------------------------|

e|----------------------------------|
B|----------------------------------|
G|-6-6-6-6-6-6-6-6-9-9-9-9-5-5-5-5--|
D|-x-x-x-x-x-x-x-x-x-x-x-x-x-x-x-x--|
A|-4-4-4-4-4-4-4-4-7-7-7-7-3-3-3-3--|
D|----------------------------------|

e|----------------------------------------------------------|
B|----------------------------------------------------------|
G|-6-6-6-6-6-6-6-6-6-6-6-6-6-6-6-6-5-5-5-5-6-6-6-6-6-6-6-6--|
D|-x-x-x-x-x-x-x-x-x-x-x-x-x-x-x-x-x-x-x-x-x-x-x-x-x-x-x-x--|
A|-4-4-4-4-4-4-4-4-4-4-4-4-4-4-4-4-3-3-3-3-4-4-4-4-4-4-4-4--|
D|----------------------------------------------------------|

Chorus 3

e|----------9----------------------------------------9-------10-------9-----------|
B|----10------10----10----10----12-10----10----10------10-------10------10----10--|
G|-11----11------11----11----11-------11----11----11------11-------11------11-----|
D|--------------------------------------------------------------------------------|
A|--------------------------------------------------------------------------------|
D|--------------------------------------------------------------------------------|

e|----------9-------------------------------|
B|----10------10----10----10----12-10---10--|
G|-11----11------11----11----11-------11----|
D|------------------------------------------|
A|------------------------------------------|
D|------------------------------------------|

e|----------9----------------------------------------9-------10-------9-----------|
B|----10------10----10----10----12-10----10----10------10-------10------10----10--|
G|-11----11------11----11----11-------11----11----11------11-------11------11-----|
D|--------------------------------------------------------------------------------|
A|--------------------------------------------------------------------------------|
D|--------------------------------------------------------------------------------|

e|----------9-----------------------|
B|----10------10----10----10----12--|
G|-11----11------11----11----11-----|
D|----------------------------------|
A|----------------------------------|
D|----------------------------------|

End

e|------------------------------------------|
B|------------------------------------------|
G|-6-6-6-6-6-6-6-6-6-6-6-6-6-6-6-6-5-5-5-5--|
D|-x-x-x-x-x-x-x-x-x-x-x-x-x-x-x-x-x-x-x-x--|(x2)
A|-4-4-4-4-4-4-4-4-4-4-4-4-4-4-4-4-3-3-3-3--|
D|------------------------------------------|

e|----------------------------------------------------------------16(x6)-17(x4)-|
B|-15(x8)-14(x8)-17(x8)--------15(x2)-14(x2)-15(x8)-14(x8)-17(x6)---------------|
G|----------------------14(x4)--------------------------------------------------|
D|------------------------------------------------------------------------------|
A|------------------------------------------------------------------------------|
D|------------------------------------------------------------------------------|

That's it! A great song from Mayday Parade. Feel free to post a comment.  

************************************

| /   slide up
| \   slide down
| h   hammer-on
| p   pull-off
| ~   vibrato
| +   harmonic
| x   Mute note
| b   Bend
| pb  Pre-bend
| br  Bend release
| pbr Pre-bend release
| brb Bend release bend

************************************

            
            
Suggest correction
Creating personal tab
Creating personal tab
You can edit any tab online and save it as your Personal.

You can edit, replace or remove any tab part or add personal notes – all changes will be seen only by you.

Personal tabs can be accessed anytime from any device, even offline.
Learn more »
Give kudos to tab author, rate the tab!
1 2 3 4 5
comments
print report bad tab
guest
You may want to rate the tab now too:
select rating
Wanna post a correction for this tab? Suggest correction