Oops, an error
Loading. Please wait.

Oh Well Oh Well Bass Tab

4,347 views 15 this week
2 commentsread comments
1 2 3 4 5
excellent!
x 4
add to favorites
launch autoscroll
font size
0
reset
guitar tuner
Tab Pro tools
  • play this tab
  • loop segment
  • change instrument
  • show fretboard
  • metronome
Autoscroll
slow
fast
+/-
esc
set tempo
stop
Contributor
Difficulty
intermediate
Oh Well, Oh Well - Mayday Parade

This is my first attempt at writing a bass tab, so please excuse any errors.

Intro (No bass)

Verse 1:

G|------------------------------------------------------------------|
D|------------------------------------------------------------------|
A|-4-4-4-4-4-4-4-4---------------------------------4-4-4-4-4-4-4-4--|
E|-----------------4-4-4-4-4-4-4-4-2-2-2-2-2-2-2-2------------------|

G|------------------------------------------------------------------|
D|------------------------------------------------------------------|
A|---------------------------------4-4-4-4-4-4-4-4-4-4-4-4-4-4-4-4--|
E|-2-2-2-2-2-2-2-2-4-4-4-4-4-4-4-4----------------------------------|

"So here's your song..."

G|-----------~--|
D|--------------|  x2
A|-4~-------4~--|
E|----4~-2~-----|


"Oh well, oh well. Guess I'll see you in hell..."

Chorus:

G|-------------------------------------------------------------------|
D|-------------------------------------------------------------------|
A|-------------------------4-4-4-4-----------------------------------|
E|-6-6-6-6-4-4-4-4-2-2-2-2----------6-6-6-6-2-2-2-2-4-4-4-4-4-4-4-4--|



G|-------------------------------------------------------------------|
D|-------------------------------------------------------------------|
A|-------------------------4-4-4-4-----------------------------------|
E|-6-6-6-6-4-4-4-4-2-2-2-2----------6-6-6-6-2-2-2-2-4-4-4-4-4-4-4-4--|


"Sit still and listen to..."

Verse 2:

G|--------------------------------------------------------------|
D|--------------------------------------------------------------| x2
A|-44-----44----------------------------------------------------|
E|----------------44-----44----6-6-6-6-4-4-4-4-2-2-2-2-2-2-2-2--|



Bridge 1: 

"So we all scream loud"                                                

G|------------------------------------------------------------------|
D|------------------------------------------------------------------|
A|------------------------------------------------------------------|  
E|-6-6-6-6-6-6-6-6-4-4-4-4-4-4-4-4-2-2-2-2-2-2-2-2-2-2-2-2-2-2-2-2--|

"And that was it..."

G|----|
D|----|
A|4~--|
E|----|

"So I'll just fly"

G|------------------------------------------------------------------------------|
D|------------------------------------------------------------------------------|
A|-------------4444444444444444-------------------------------------------------|
E|------------------------------4444444444444444-2222222222222222-7~-9\--2-2-2--|
                                                                        

"Oh well, oh well. I can't live with myself..."

Chorus:

G|-------------------------------------------------------------------|
D|-------------------------------------------------------------------|
A|-------------------------4-4-4-4-----------------------------------|
E|-6-6-6-6-4-4-4-4-2-2-2-2----------6-6-6-6-2-2-2-2-4-4-4-4-4-4-4-4--|

G|-------------------------------------------------------------------|
D|-------------------------------------------------------------------|
A|-------------------------4-4-4-4-----------------------------------|
E|-6-6-6-6-4-4-4-4-2-2-2-2----------6-6-6-6-2-2-2-2-4-4-4-4-4-4-4-4--|

"Sit still and listen to..."

Bridge 2:

G|------------------------------------------------------------------|
D|------------------------------------------------------------------| x2
A|-4-4-4-4-4-4-4-4--------------------------------------------------|
E|-----------------2-2-2-2-2-2-2-2-6-6-6-6-4-4-4-4-2-2-2-2-2-2-2-2--|

"Whoa, Whoa, Woah" 

G|------------------------------------------|
D|------------------------------------------|
A|-4~-------------------4~---4~---4~-4~-4~--|
E|------2~---6~-4~-2~-----------------------|

"And I've been talking to God..."

G|------------------------------------------------------------------|
D|------------------------------------------------------------------|
A|-4-4-4-4-4-4-4-4-4-4-4-4-4-4-4-4-4-4-4-4-4-4-4-4-4-4-4-4-4-4-4-4--|
E|------------------------------------------------------------------|

G|-------------------------------------------------------------------|
D|-------------------------------------------------------------------|
A|-------------------------4-4-4-4--------------------------4-4-4-4--|
E|-6-6-6-6-4-4-4-4-2-2-2-2----------6-6-6-6-4-4-4-4-2-2-2-2----------|

G|-------------------------------------------------------------------|
D|-------------------------------------------------------------------|
A|-------------------------4-4-4-4--------------------------4-4-4-4--|
E|-6-6-6-6-4-4-4-4-2-2-2-2----------6-6-6-6-4-4-4-4-2-2-2-2----------|



G|-------------------------------------------------------------------|
D|-------------------------------------------------------------------|
A|-------------------------4-4-4-4-----------------------------------|
E|-6-6-6-6-4-4-4-4-2-2-2-2----------6-6-6-6-4-4-4-4-2-2-2-2-2-2------|


G|---------------------------------------------------------------------|
D|---------------------------------------------------------------------|
A|-------------------------4-4-4-4-------------------------------------|
E|-6-6-6-6-4-4-4-4-2-2-2-2----------6-6-6-6-2-2-2-2-4-4-4-4-4-4--4--4--|

Outro:

"I'll keep you warm..."
e|--------------|
B|--------------|
G|--------------|
D|--------------|
A|-4~-------4~--|
E|----4~-2~-----|
comments
print report bad tab
2 comments total.
+1 reply
stlavallee wrote on May 30 2013, 12:24 pm

Done very well, usually Mayday Parade plays in Drop D

+1 reply
lordoftheflies9 wrote on November 5 2013, 07:39 pm

This wrong; either move what you have up to the G and D strings or take everything down 1 step. Everything is 2 frets too high basically.

I want to post or [tab]
guest
You may want to rate the tab now too:
select rating
Please do not post tabs as comments. Select "correction" instead!