Oops, an error
Loading. Please wait.

Oh Well Oh Well Bass Tab

version 2
version 2

Whole song

25 views 1 this week
no commentswrite comment
1 2 3 4 5
3 more votes to show rating
add to favorites
launch autoscroll
font size
0
reset
guitar tuner
Autoscroll
slow
fast
+/-
esc
set tempo
stop
Help us to improve Ultimate-Guitar.com Take our survey!
×
Author
Verse 1:
(After "Maybe you could get some sleep tonight")
G|------------------------------------------------------------------|
D|------------------------------------------------------------------|
A|-2-2-2-2-2-2-2-2---------------------------------2-2-2-2-2-2-2-2--|
E|-----------------2-2-2-2-2-2-2-2-0-0-0-0-0-0-0-0------------------|

G|------------------------------------------------------------------|
D|------------------------------------------------------------------|
A|---------------------------------2-2-2-2-2-2-2-2-2-2-2-2-2-2-2-2--|
E|-0-0-0-0-0-0-0-0-2-2-2-2-2-2-2-2----------------------------------|

"So here's your song..."
G|-----------~--|
D|--------------|  x2
A|-2~-------2~--|
E|----2~-0~-----|

Chorus:
"Oh well, oh well. Guess I'll see you in hell..."
G|-------------------------------------------------------------------|
D|-------------------------------------------------------------------|
A|-------------------------2-2-2-2-----------------------------------|
E|-4-4-4-4-2-2-2-2-0-0-0-0---------4-4-4-4-0-0-0-0-2-2-2-2-2-2-2-2---|

G|-------------------------------------------------------------------|
D|-------------------------------------------------------------------|
A|-------------------------2-2-2-2-----------------------------------|
E|-4-4-4-4-2-2-2-2-0-0-0-0---------4-4-4-4-0-0-0-0-2-2-2-2-2-2-2-2---|

Verse 2:
"Sit still and listen to..."
G|-----------------------------------------------------------------|
D|-----------------------------------------------------------------| x2
A|-2-2-----2-2-----------------------------------------------------|
E|----------------2-2-----2-2-----4-4-4-4-2-2-2-2-0-0-0-0-0-0-0-0--|

Bridge 1: 
"So we all scream loud"                                                
G|------------------------------------------------------------------|
D|------------------------------------------------------------------|
A|------------------------------------------------------------------|  
E|-4-4-4-4-4-4-4-4-2-2-2-2-2-2-2-2-0-0-0-0-0-0-0-0-0-0-0-0-0-0-0-0--|

"And that was it..."
G|----|
D|----|
A|2~--|
E|----|

"So I'll just fly"
G|----------------------------------------------------------------------------------------------------------|
D|----------------------------------------------------------------------------------------------------------|
A|----2-2-2-2-2-2-2-2-2-2-2-2-2-2-2-2-----------------------------------------------------------------------|
E|-------------------------------------2-2-2-2-2-2-2-2-2-2-2-2-2-2-2-2---0-0-0-0-0-0-0-0-0-0-0-0-0-0-0-0----|
                                                                        
Chorus:
"Oh well, oh well. I can't live with myself..."
G|-------------------------------------------------------------------|
D|-------------------------------------------------------------------|
A|-------------------------2-2-2-2-----------------------------------|
E|-4-4-4-4-2-2-2-2-0-0-0-0---------4-4-4-4-0-0-0-0-2-2-2-2-2-2-2-2---|

G|-------------------------------------------------------------------|
D|-------------------------------------------------------------------|
A|-------------------------2-2-2-2-----------------------------------|
E|-4-4-4-4-2-2-2-2-0-0-0-0---------4-4-4-4-0-0-0-0-2-2-2-2-2-2-2-2---|

Bridge 2:
"Sit still and listen to..."
G|------------------------------------------------------------------|
D|------------------------------------------------------------------| x2
A|-2-2-2-2-2-2-2-2--------------------------------------------------|
E|-----------------0-0-0-0-0-0-0-0-4-4-4-4-2-2-2-2-0-0-0-0-0-0-0-0--|

"Whoa, Whoa, Woah" 
G|------------------------------------------|
D|------------------------------------------|
A|-2~-------------------2~---2~---2~-2~-2~--|
E|------0~---4~-2~-0~-----------------------|

"And I've been talking to God..." to "...but it's hopeless"
G|------------------------------------------------------------------|
D|------------------------------------------------------------------|
A|--2-2-2-2-2-2-2-2-2-2-2-2-2-2-2-2-2-2-2-2-2-2-2-2-2-2-2-2-2-2-2-2-|
E|------------------------------------------------------------------|

"It's not the first time..."
G|-------------------------------------------------------------------|
D|-------------------------------------------------------------------|
A|-------------------------2-2-2-2-------------------------2-2-2-2---|
E|-4-4-4-4-2-2-2-2-0-0-0-0---------4-4-4-4-2-2-2-2-0-0-0-0-----------|

"It's over. I wanna see you again..."
G|-------------------------------------------------------------------|
D|-------------------------------------------------------------------|
A|-------------------------2-2-2-2-------------------------2-2-2-2---|
E|-4-4-4-4-2-2-2-2-0-0-0-0---------4-4-4-4-0-0-0-0-2-2-2-2-----------|

"It's not the first time..."
G|-------------------------------------------------------------------|
D|-------------------------------------------------------------------|
A|-------------------------2-2-2-2-----------------------------------|
E|-4-4-4-4-2-2-2-2-0-0-0-0---------4-4-4-4-2-2-2-2-0-0-0-0-0-0x------|

"It's over. I wanna see you again..."
G|---------------------------------------------------------------------|
D|---------------------------------------------------------------------|
A|-------------------------2-2-2-2-------------------------------------|
E|-4-4-4-4-2-2-2-2-0-0-0-0---------4-4-4-4-0-0-0-0-2-2-2-2-2-2--2--2---|

Outro:
  I'll keep you warm safe in my arms. 'Till heaven calls, keep holding on.
G|---------------------------------------------------------------------------|
D|---------------------------------------------------------------------------|
A|--------------2~----------------------------------2~-----------------------|
E|-------------------------------2~-----------------------------------0~-----|
Suggest correction
Give kudos to tab author, rate the tab!
1 2 3 4 5
comments
print report bad tab
guest
You may want to rate the tab now too:
select rating
Wanna post a correction for this tab? Suggest correction