Oops, an error
Loading. Please wait.

Oh Well Oh Well Tab

version 2
version 2

Whole song

19,209 views 9 this week
1 commentread comment
1 2 3 4 5
accurate
x 5
add to favorites
launch autoscroll
font size
0
reset
how to read this tab
guitar tuner
Tab Pro tools
  • play this tab
  • loop segment
  • change instrument
  • show fretboard
  • metronome
×
Best way to learn
"Oh Well Oh Well"
Autoscroll
slow
fast
+/-
esc
set tempo
stop
Contributor
Difficulty
novice
Song: Oh Well, Oh Well
Artist: Mayday Parade
Album: Mayday Parade

This is only a tabbed out version of the Rhythm Guitar
Check it out, maybe you'll like it


   B   F#  E  Abm
e|-2---2---0---4--|
B|-4---2---0---4--|
G|-4---3---1---4--|
D|-4---4---2---6--|
A|-2---4---2---6--|
E|-----2---0---4--|

Intro - (Piano Chords)

              B                    F#
When you're alone, do you think of me?
                E                  B
And my diamond rings thrown out to sea. 
              B                    F#
And when you love, do you love for me?
           E                B
Like harmony, a never ending dream. 

   Abm       F#           E                B
Oh well, oh well. I still hope for the best. 
         Abm              F#          E       B
Say goodbye and send me off with a kiss farewell.
       Abm          F#             E            B
And I promise I'll be just as strong as I can be.
 Abm             E          F#      B
Maybe you could get some sleep tonight. 



Verse 1:
e|------------------------------------------------------------------|
B|------------------------------------------------------------------|
G|-4-4-4-4-4-4-4-4---------------------------------4-4-4-4-4-4-4-4--|
D|-4-4-4-4-4-4-4-4-4-4-4-4-4-4-4-4-2-2-2-2-2-2-2-2-4-4-4-4-4-4-4-4--|
A|-2-2-2-2-2-2-2-2-4-4-4-4-4-4-4-4-2-2-2-2-2-2-2-2-2-2-2-2-2-2-2-2--|
E|-----------------2-2-2-2-2-2-2-2-0-0-0-0-0-0-0-0------------------|

e|------------------------------------------------------------------|
B|------------------------------------------------------------------|
G|---------------------------------4-4-4-4-4-4-4-4-4-4-4-4-4-4-4-4--|
D|-2-2-2-2-2-2-2-2-4-4-4-4-4-4-4-4-4-4-4-4-4-4-4-4-4-4-4-4-4-4-4-4--|
A|-2-2-2-2-2-2-2-2-4-4-4-4-4-4-4-4-2-2-2-2-2-2-2-2-2-2-2-2-2-2-2-2--|
E|-0-0-0-0-0-0-0-0-2-2-2-2-2-2-2-2----------------------------------|

"So here's your song..."
e|--------------|
B|--------------|
G|-4~-------4~--|
D|-4~-4~-2~-4~--| x2
A|-2~-4~-2~-2~--|
E|----2~-0~-----|


"Oh well, oh well I'll see you in hell..."
Chorus:
e|-----------------------------------------------------------------------|
B|-----------------------------------------------------------------------|
G|-------------------------4-4-4-4--------------------------x-4-x-x-4-4--|
D|-6-6-6-6-4-4-4-4-2-2-2-2-4-4-4-4--6-6-6-6-4-4-4-4-2-2-2-2-x-4-x-x-4-4--|
A|-6-6-6-6-4-4-4-4-2-2-2-2-2-2-2-2--6-6-6-6-4-4-4-4-2-2-2-2-x-2-x-x-2-2--|
E|-4-4-4-4-2-2-2-2-0-0-0-0----------4-4-4-4-2-2-2-2-0-0-0-0-x---x-x------|

e|-------------------------------------------------------------------|
B|-------------------------------------------------------------------|
G|-------------------------4-4-4-4-----------------------------------|
D|-6-6-6-6-4-4-4-4-2-2-2-2-4-4-4-4--6-6-6-6-2-2-2-2-4-4-4-4-4-4-4-4--|
A|-6-6-6-6-4-4-4-4-2-2-2-2-2-2-2-2--6-6-6-6-2-2-2-2-4-4-4-4-4-4-4-4--|
E|-4-4-4-4-2-2-2-2-0-0-0-0----------4-4-4-4-0-0-0-0-2-2-2-2-2-2-2-2--|


"Sit still and listen to..."
Verse 2:
e|--------------------------------------------------------------|
B|--------------------------------------------------------------|
G|-44-xx-x44-xx-x---xx-x---xx-x---------------------------------|
D|-44-xx-x44-xx-x44-xx-x44-xx-x6-6-6-6-4-4-4-4-2-2-2-2-2-2-2-2--| x2
A|-22-xx-x22-xx-x44-xx-x44-xx-x6-6-6-6-4-4-4-4-2-2-2-2-2-2-2-2--|
E|----xx-x---xx-x22-xx-x22-xx-x4-4-4-4-2-2-2-2-0-0-0-0-0-0-0-0--|

"...scream out"
Bridge 1:                                                   "And that was it"
e|---------------------------------------------------------------------------|
B|---------------------------------------------------------------------------|
G|-----------------------------------------------------------------------4~--|
D|-6-6-6-6-6-6-6-6-4-4-4-4-4-4-4-4-2-2-2-2-2-2-2-2-2-2-2-2-2-2-2-2-- x2 -4~--|
A|-6-6-6-6-6-6-6-6-4-4-4-4-4-4-4-4-2-2-2-2-2-2-2-2-2-2-2-2-2-2-2-2--    -2~--|
E|-4-4-4-4-4-4-4-4-2-2-2-2-2-2-2-2-0-0-0-0-0-0-0-0-0-0-0-0-0-0-0-0-----------|

"So I'll just fly"
e|------------------------------------------------------------------------------|
B|------------------------------------------------------------------------------|
G|---------xx--4444444444444444-------------------------------------------------|
D|---------xx--4444444444444444-4444444444444444-2222222222222222----9\--2-2-2--|
A|---------xx--2222222222222222-4444444444444444-2222222222222222----9\--2-2-2--|
E|---------xx-------------------2222222222222222-0000000000000000-7~-7\--0-0-0--|
                                                                         . . .

"Oh well, oh well I'll see you in hell..."
Chorus:
e|-----------------------------------------------------------------------|
B|-----------------------------------------------------------------------|
G|-------------------------4-4-4-4--------------------------x-4-x-x-4-4--|
D|-6-6-6-6-4-4-4-4-2-2-2-2-4-4-4-4--6-6-6-6-4-4-4-4-2-2-2-2-x-4-x-x-4-4--|
A|-6-6-6-6-4-4-4-4-2-2-2-2-2-2-2-2--6-6-6-6-4-4-4-4-2-2-2-2-x-2-x-x-2-2--|
E|-4-4-4-4-2-2-2-2-0-0-0-0----------4-4-4-4-2-2-2-2-0-0-0-0-x---x-x------|

e|-------------------------------------------------------------------|
B|-------------------------------------------------------------------|
G|-------------------------4-4-4-4-----------------------------------|
D|-6-6-6-6-4-4-4-4-2-2-2-2-4-4-4-4--6-6-6-6-2-2-2-2-4-4-4-4-4-4-4-4--|
A|-6-6-6-6-4-4-4-4-2-2-2-2-2-2-2-2--6-6-6-6-2-2-2-2-4-4-4-4-4-4-4-4--|
E|-4-4-4-4-2-2-2-2-0-0-0-0----------4-4-4-4-0-0-0-0-2-2-2-2-2-2-2-2--|


"Sit down and listen to..."
Bridge 2:
e|------------------------------------------------------------------|
B|------------------------------------------------------------------|
G|-4-4-4-4-4-4-4-4--------------------------------------------------|
D|-4-4-4-4-4-4-4-4-2-2-2-2-2-2-2-2-6-6-6-6-4-4-4-4-2-2-2-2-2-2-2-2--| x2
A|-2-2-2-2-2-2-2-2-2-2-2-2-2-2-2-2-6-6-6-6-4-4-4-4-2-2-2-2-2-2-2-2--|
E|-----------------0-0-0-0-0-0-0-0-4-4-4-4-2-2-2-2-0-0-0-0-0-0-0-0--|

"Whoa, Whoa, Woah"
e|------------------------------------------|
B|------------------------------------------|
G|-4~-------------------4~---4~---4~-4~-4~--|
D|-4~---2~---6~-4~-2~---4~---4~---4~-4~-4~--|
A|-2~---2~---6~-4~-2~---2~---2~---2~-2~-2~--|
E|------0~---4~-2~-0~-----------------------|

"And I've been talking to..."
e|------------------------------------------------------------------|
B|------------------------------------------------------------------|
G|-4-4-4-4-4-4-4-4-4-4-4-4-4-4-4-4-4-4-4-4-4-4-4-4-4-4-4-4-4-4-4-4--|
D|-4-4-4-4-4-4-4-4-4-4-4-4-4-4-4-4-4-4-4-4-4-4-4-4-4-4-4-4-4-4-4-4--|
A|-2-2-2-2-2-2-2-2-2-2-2-2-2-2-2-2-2-2-2-2-2-2-2-2-2-2-2-2-2-2-2-2--|
E|------------------------------------------------------------------|
   . . . . . . . . . . . . . . . . . . . . . . . . . . . . . . . .


e|-------------------------------------------------------------------|
B|-------------------------------------------------------------------|
G|-------------------------4-4-4-4--------------------------4-4-4-4--|
D|-6-6-6-6-4-4-4-4-2-2-2-2-4-4-4-4--6-6-6-6-4-4-4-4-2-2-2-2-4-4-4-4--|
A|-6-6-6-6-4-4-4-4-2-2-2-2-2-2-2-2--6-6-6-6-4-4-4-4-2-2-2-2-2-2-2-2--|
E|-4-4-4-4-2-2-2-2-0-0-0-0----------4-4-4-4-2-2-2-2-0-0-0-0----------|

e|-------------------------------------------------------------------|
B|-------------------------------------------------------------------|
G|-------------------------4-4-4-4-----------------------------------|
D|-6-6-6-6-4-4-4-4-2-2-2-2-4-4-4-4--6-6-6-6-2-2-2-2-4-4-4-4-4-4-4-4--|
A|-6-6-6-6-4-4-4-4-2-2-2-2-2-2-2-2--6-6-6-6-2-2-2-2-4-4-4-4-4-4-4-4--|
E|-4-4-4-4-2-2-2-2-0-0-0-0----------4-4-4-4-0-0-0-0-2-2-2-2-2-2-2-2--|

e|-------------------------------------------------------------------|
B|-------------------------------------------------------------------|
G|-------------------------4-4-4-4-----------------------------------|
D|-6-6-6-6-4-4-4-4-2-2-2-2-4-4-4-4--6-6-6-6-4-4-4-4-2-2-2-2-2-2------|
A|-6-6-6-6-4-4-4-4-2-2-2-2-2-2-2-2--6-6-6-6-4-4-4-4-2-2-2-2-2-2------|
E|-4-4-4-4-2-2-2-2-0-0-0-0----------4-4-4-4-2-2-2-2-0-0-0-0-0-0------|

e|---------------------------------------------------------------------|
B|---------------------------------------------------------------------|
G|-------------------------4-4-4-4-------------------------------------|
D|-6-6-6-6-4-4-4-4-2-2-2-2-4-4-4-4--6-6-6-6-2-2-2-2-4-4-4-4-4-4--4--4--|
A|-6-6-6-6-4-4-4-4-2-2-2-2-2-2-2-2--6-6-6-6-2-2-2-2-4-4-4-4-4-4--4--4--|
E|-4-4-4-4-2-2-2-2-0-0-0-0----------4-4-4-4-0-0-0-0-2-2-2-2-2-2--2--2--|

Outro:
"I'll keep you warm..."
e|--------------|
B|--------------|
G|-4~-------4~--|
D|-4~-4~-2~-4~--|
A|-2~-4~-2~-2~--|
E|----2~-0~-----|


Yeah, someone else should do the lead guitar thank you :)
comments
print report bad tab
1 comment total.
0 reply
Ian Arguilles wrote on June 17 2013, 07:50 am

Yes, A lead tab would be great :(

I want to post or [tab]
guest
You may want to rate the tab now too:
select rating
Please do not post tabs as comments. Select "correction" instead!