Oops, an error
Loading. Please wait.

Oh Well Oh Well tab

version 3
version 3

Whole song

Video

8,850 views 18 this week
1 commentread comment
1 2 3 4 5
x 14
add to favorites
×
Save as Personal and add changes to this tab that will be seen only by you. Learn more ›
×
You can save this tab as Personal to edit and correct it or add notes. All changes will be seen only by you. Learn more »
launch autoscroll
font size
0
reset
how to read this tab
guitar tuner
edit
Autoscroll
slow
fast
+/-
esc
set tempo
stop
Author
Oh Well, Oh Well
-----------------------------------------------------------------------------
Hey guys this is one of my favorite songs  from Mayday Parade and it was aggravating
that there was no tabs out there that were even half way decent. so i found a way of
playing it by watching a lot of different videos, obviously there are two guitarist in 
Mayday Parade but for this way of playing it you only need one guitar. its pretty easy 
and it
sounds good played with the song, if you need a video to see how it sounds played here's 
a link to a cover played this way http://www.youtube.com/watch?v=LdoQHuJPD6k&html5=1 so 
yeah enjoy! :)

Song: Oh Well, Oh Well
Artist: Mayday Parade
Album: Mayday Parade
Tuning: Standard

 [Piano intro] (just listen to the piano you'll get it)(0:00-0:24)
 when you're alone....
e|-----------------------------------------------------------------------:
B|-----------------------------------------------------------------------:
G|-----------4------------------------------------------4----------------: x2
D|-----------4-----------4-------------2----------------4----------------:
A|-----------2-----------4-------------2----------------2----------------:
E|-----------------------2-------------0---------------------------------:

 (0:25-0:51)
 Oh well, oh well i still hope for the best...
e|------------------------------------------------------------------------:
B|------------------------------------------------------------------------:
G|-------------------4----------------------------------------------------:
D|--6----4-----2-----4-------6-----4-------2--------2---------------------:
A|--6----4-----2-----2-------6-----4-------2--------2---------------------:
E|--4----2-----0-------------4-----2-------0--------0---------------------:

 and i promise I'll be just as strong as i can be
e|------------------------------------------------------------------------:
B|------------------------------------------------------------------------:
G|-------------------4----------------------------------------------------:
D|--6----4-----2-----4-------6-----2-------4---------4--------------------:
A|--6----4-----2-----2-------6-----2-------4---------4--------------------:
E|--4----2-----0-------------4-----0-------2---------2--------------------:

 [Pre-Verse]
 (0:52-1:03)
e|---------------------------------------------------:
B|---------------------------------------------------:
G|---44444444/1111111111111111/9999-11-9--88888--6---:
D|---xxxxxxxx/x-x-x-x-x-x-x-x-/xxxx-x--x--xxxxx--x---:
A|---22222222/9-9-9-9-9-9-9-9-/7777-9--7--66666--4---:
E|---------------------------------------------------:

e|---------------------------------------------------:
B|---------------------------------------------------:
G|--44444444/11111111-13-11-9999-8888-9999-----------:
D|--xxxxxxxx/x-x-x-x--x--x--xxxx-xxxx-xxxx-----------:
A|--22222222/9-9-9-9--11-9--7777-6666-7777-----------:
E|---------------------------------------------------:

[Verse]
 (1:03-1:11)
 so here's your song....
e|---------------------------------------------------:
B|---------------------------------------------------:
G|--4--------------------------4---------------------:
D|--x------4---------2---------4---------------------:
A|--2------4---------2---------2---------------------:
E|---------2---------0-------------------------------:

 (1:12-1:22)
 And I'll just smile....
e|---------------------------------------------------:
B|---------------------------------------------------:
G|-6666666666666666/11111111111111111111111111111111-:
D|-xxxxxxxxxxxxxxxx/x-x-x-x-x-x-x-x-x-x-x-x-x-x-x-x--:
A|-2222222222222222/9-9-9-9-9-9-9-9-9-9-9-9-9-9-9-9--:
E|---------------------------------------------------:

e|---------------------------------------------------:
B|---------------------------------------------------:
G|--99999999999999999999--9/12--11----------12--11---:
D|--xxxxxxxxxxxxxxxxxxxx-----------11h13p11----------:
A|--77777777777777777777-----------------------------:
E|---------------------------------------------------:

[Pre-Chorus]
 (1:23-1:42)
 oh well, oh well guess I'll see you in hell...
e|--------------------------------------------------------------:
B|--------------------------------------------------------------:
G|-----------------------444xx----------------------------------:
D|--666xx--444xx--222xx--444xx---666xx--444xx--222xx--222xx-----:
A|--666xx--444xx--222xx--222xx---666xx--444xx--222xx--222xx-----:
E|--444xx--222xx--000xx----------444xx--222xx--000xx--000xx-----:

 and im starting to dream..
e|--------------------------------------------------------------:
B|--------------------------------------------------------------:
G|------------------------444xx---------------------------------:
D|---666xx--444xx--222xx--444xx--666xx--222xx--444xx444---------:
A|---666xx--444xx--222xx--222xx--666xx--222xx--444xx444---------:
E|---444xx--222xx--000xx---------444xx--000xx--222xx222---------:

[Chorus]
 (1:43-2:03)
 sit still and listen to the sound track...
e|--------------------------------------------------------------:
B|--------------------------------------------------------------:
G|--------------------------------------------------------------: x2
D|--44xxxx44xxxx--22xxxx22xxxx--666xx--44xx---222xx-222xx-------:
A|--22xxxx22xxxx--22xxxx22xxxx--666xx--444xx--222xx-222xx-------:
E|--22xxxx22xxxx--00xxxx00xxxx--444xx--222xx--000xx-000xx-------:

 [Pre-Verse]
 (2:03-2:13)
e|--------------------------------------------------------------:
B|--------------------------------------------------------------:
G|-44444444/111111111111111111-9999-8888-9999-6666--------------:
D|-xxxxxxxx/x-x-x-x-x-x-x-x-x--xxxx-xxxx-xxxx-xxxx--------------:
A|-22222222/9-9-9-9-9-9-9-9-9--7777-6666-7777-4444--------------:
E|--------------------------------------------------------------:

e|--------------------------------------------------------------:
B|--------------------------------------------------------------:
G|-44444444/11111111-13--11-13131313--15151515--16161616--17----:
D|-xxxxxxxx/x-x-x-x--x---x--x-x-x-x---x-x-x-x---x-x-x-x---x-----:
A|-22222222/9-9-9-9--11--9--11111111--13131313--14141414--15----:
E|--------------------------------------------------------------:

[Verse]
 (2:14-2:23)
 and that was it, i had made it clean....
e|--------------------------------------------------------------:
B|--------------------------------------------------------------:
G|---------4----------------------------------------4-----------:
D|---------x------------4--------------2------------4-----------:
A|---------2------------4--------------2------------2-----------:
E|----------------------2--------------0------------------------:

 (2:24-2:34)
 so I'll just fly, and remember that I...
e|--------------------------------------------------------------:
B|--------------------------------------------------------------:
G|--4444444444444444/11111111111111111111111111111111/----------:
D|--xxxxxxxxxxxxxxxx/x-x-x-x-x-x-x-x-x-x-x-x-x-x-x-x/-----------:
A|--2222222222222222/9-9-9-9-9-9-9-9-9-9-9-9-9-9-9-9/-----------:
E|--------------------------------------------------------------:

e|--------------------------------------------------------------:
B|----------------------9/12--11------------12--11---12-14-16---:
G|-/9999999999999999-------------11h13p11-----------------------:
D|-/xxxxxxxxxxxxxxxx--------------------------------------------:
A|-/7777777777777777--------------------------------------------:
E|--------------------------------------------------------------:

[Pre-Chorus]
 (2:34-2:55)
 oh well, oh well guess I'll see you in hell...
e|--------------------------------------------------------------:
B|--------------------------------------------------------------:
G|-----------------------444xx----------------------------------:
D|--666xx--444xx--222xx--444xx---666xx--444xx--222xx--222xx-----:
A|--666xx--444xx--222xx--222xx---666xx--444xx--222xx--222xx-----:
E|--444xx--222xx--000xx----------444xx--222xx--000xx--000xx-----:

 and im starting to dream..
e|--------------------------------------------------------------:
B|--------------------------------------------------------------:
G|------------------------444xx---------------------------------:
D|---666xx--444xx--222xx--444xx--666xx--222xx--444xx444---------:
A|---666xx--444xx--222xx--222xx--666xx--222xx--444xx444---------:
E|---444xx--222xx--000xx---------444xx--000xx--222xx222---------:

[Chorus]
 (2:55-3:14)
 sit still and listen to the sound track...
e|--------------------------------------------------------------:
B|--------------------------------------------------------------:
G|--444444444444------------------------------------------------: x2
D|--444444444444--222222222222--666xx--44xx---222xx-222xx-------:
A|--222222222222--222222222222--666xx--444xx--222xx-222xx-------:
E|--222222222222--000000000000--444xx--222xx--000xx-000xx-------:

 [Bridge] pt.1
 (3:15-3:24
 whoa,whoa....
e|--------------------------------------------------------------:
B|--------------------------------------------------------------:
G|------4-------------------------------------------------------:
D|------4-----------2-------------6----------4----------2-------:
A|------2-----------2-------------6----------4----------2-------:
E|------2-----------0-------------4----------2----------0-------:

 [Bridge] pt.2
 (3:25-3:44)
 when she smiles well its got nothing to do with me
e|--------------------------------------------------------------:
B|-0000-0-000-00--0-0-0--0-0-0--0-0-0--0000-00000-00-0-0--------:
G|-4444-6-888-66--151515-161616-121212-4444-66666-88-6-4--------:
D|--------------------------------------------------------------: x2
A|--------------------------------------------------------------:
E|--------------------------------------------------------------:

[Pre-Chorus]
 (3:44-4:06)
 its not the first time...
e|--------------------------------------------------------------:
B|--------------------------------------------------------------:
G|-----------------------444xx----------------------------------:
D|--666xx--444xx--222xx--444xx---666xx--444xx--222xx--222xx-----:
A|--666xx--444xx--222xx--222xx---666xx--444xx--222xx--222xx-----:
E|--444xx--222xx--000xx----------444xx--222xx--000xx--000xx-----:

e|--------------------------------------------------------------:
B|--------------------------------------------------------------:
G|------------------------444xx---------------------------------:
D|---666xx--444xx--222xx--444xx--666xx--222xx--444xx444---------:
A|---666xx--444xx--222xx--222xx--666xx--222xx--444xx444---------:
E|---444xx--222xx--000xx---------444xx--000xx--222xx222---------:

[Pre-Chorus]
 (4:06-4:25)
 its not the first time..
e|--------------------------------------------------------:
B|--------------------------------------------------------:
G|-----------------------444xx----------------------------:
D|--666xx--444xx--222xx--444xx---666xx--444xx--222222-----:
A|--666xx--444xx--222xx--222xx---666xx--444xx--222222-----: *pause*
E|--444xx--222xx--000xx----------444xx--222xx--000000-----:

e|--------------------------------------------------------------:
B|--------------------------------------------------------------:
G|------------------------444xx---------------------------------:
D|---666xx--444xx--222xx--444xx--666xx--222xx--444xx444---------:
A|---666xx--444xx--222xx--222xx--666xx--222xx--444xx444---------:
E|---444xx--222xx--000xx---------444xx--000xx--222xx222---------:

[Verse]
 (4:26-4:43)
 I'll keep you warm, Safe in my arms, till heaven calls, keep holding on....
e|--------------------------------------------------------------:
B|--------------------------------------------------------------:
G|----4---------------------------------------------4-----------:
D|----x--------------4--------------2---------------4-----------:
A|----2--------------4--------------2---------------2-----------:
E|-------------------2--------------0---------------------------:

Hope you enjoyed! :)

************************************

| /  Slide up
| x  Dead note
| h  Hammer-on
| p  Pull-off
 

************************************
Suggest correction
Creating personal tab
Creating personal tab
You can edit any tab online and save it as your Personal.

You can edit, replace or remove any tab part or add personal notes – all changes will be seen only by you.

Personal tabs can be accessed anytime from any device, even offline.
Learn more »
comments
print report bad tab
1 comment total.
0 reply
Makrura 10 Jul 02, 2015 01:11 PM

During the bridge, after the sixteens on the G, it should go to 13's, not 12's.

guest
You may want to rate the tab now too:
select rating
Wanna post a correction for this tab? Suggest correction