Oops, an error
Loading. Please wait.

Somebody That I Used To Know bass

8,861 views 9 this week
no commentswrite comment
1 2 3 4 5
x 5
add to favorites
×
Save as Personal and add changes to this tab that will be seen only by you. Learn more ›
×
You can save this tab as Personal to edit and correct it or add notes. All changes will be seen only by you. Learn more »
launch autoscroll
font size
0
reset
guitar tuner
edit
Autoscroll
slow
fast
+/-
esc
set tempo
stop
Hey!
This is MP's cover of Goyte's Somebody That I Used to Know from Punk Goes Pop 5.
I have tabbed this is Drop D, but it is not essential. The rest of the band plays 
dropped usually, but you can play it in standard by going two frets lower (Play 6 instead of 
8, for example).
Enjoy!

Intro/Verse
G)-------------------------------------------------|
D)-------------------------------------------------|
A)-------------------------------------------------| x12
D)-13-13-13-13-12-12-12-12-10-10-10-10-12-12-12-12-|
   *  *  *  *  *  *  *  *  *  *  *  *  *  *  *  *
Interlude
G)-----------------------------------------------------------|
D)-----------------------------------------------------------|
A)-----------------------------------------------------------|
D)-13-13/--15-13-13--15-13-13-13--13-13-13-13--13-13-13-13/--|

Verse
G)-------------------------------------------------|
D)-------------------------------------------------|
A)-------------------------------------------------| x7
D)-13-13-13-13-12-12-12-12-10-10-10-10-12-12-12-12-|
   *  *  *  *  *  *  *  *  *  *  *  *  *  *  *  *
Pre-chorus
G)---------------------|
D)---------------------|
A)---------------------|
D)-13-1313131313131313-|

Chorus
G)-----------------------------|
D)-----------------------------|
A)-----------------------------| x4
D)-10-10--10-8-8--8-6-6--6-8-8-|

G)-------------------------------------|
D)-------------------------------------|
A)-------------------------------------| x4
D)-10-10-10-10-8-8-8-8-6-6-6-6-8-8-8-8-|

G)--------------------------------|
D)--------------------------------|
A)--------------------------------|
D)-10(x8)-6(x8)-13(x8)-8(x8)-13/--|

Verse 2 (this can be played in any pattern made from Rests and 13s, this is how I play it)
G)--------------------------------------------|
D)--------------------------------------------|
A)--------------------------------------------|
D)-13-13-R-13-13-R-13-13-R-13-13-R-13-13-R-13-|

Interlude/Pre-chorus
G)-----------------------------------------------------------|
D)-----------------------------------------------------------|
A)-----------------------------------------------------------|
D)-13-13/--15-13-13--15-13-13-13--13-13-13-13--13-13-13-13/--|

Chorus
G)-----------------------------|
D)-----------------------------|
A)-----------------------------| x4
D)-10-10--10-8-8--8-6-6--6-8-8-|

G)-------------------------------------|
D)-------------------------------------|
A)-------------------------------------| x4
D)-10-10-10-10-8-8-8-8-6-6-6-6-8-8-8-8-|

G)---------------------------|
D)---------------------------|
A)---------------------------|
D)-10(x8)-6(x8)-13(x8)-8(x8)-|

G)-----------------------------------|
D)-----------------------------------|
A)-----------------------------------|
D)-10(x8)-6(x8)-13(x8)-10-8-10-8-13~-|

:D
Suggest correction
Creating personal tab
Creating personal tab
You can edit any tab online and save it as your Personal.

You can edit, replace or remove any tab part or add personal notes – all changes will be seen only by you.

Personal tabs can be accessed anytime from any device, even offline.
Learn more »
comments
print report bad tab
guest
You may want to rate the tab now too:
select rating
Wanna post a correction for this tab? Suggest correction