Oops, an error
Loading. Please wait.

Somebody That I Used To Know Tab

version 1
version 1

Whole song

67,819 views 54 this week
5 commentsread comments
1 2 3 4 5
x 10
add to favorites
×
Save as Personal and add changes to this tab that will be seen only by you. Learn more ›
launch autoscroll
font size
0
reset
how to read this tab
guitar tuner
Autoscroll
slow
fast
+/-
esc
set tempo
stop
Author
Difficulty
Tuning
intermediate
D A D G B E
Tuning: 
Guitar 1 - Drop D (You could play guitar one standard in honesty)
Guitar 2 - Standard or Drop D, doesn't matter- you don't play the bottom string.

(Guitar 1)
[Intro]
e|---------------------------------------------------|
B|---------------------------------------------------| 
G|---------------------------------------------------| (x12)
D|--13-13-13-13-12-12-12-12-10-10-10-10-12-12-12-12--| 
A|--13-13-13-13-12-12-12-12-10-10-10-10-12-12-12-12--| 
D|--13-13-13-13-12-12-12-12-10-10-10-10-12-12-12-12--|
     *  *  *  *  *  *  *  *  *  *  *  *  *  *  *  *

[Interlude Bit]
e|--------------------------------------------------------------------|
B|--------------------------------------------------------------------|
G|--------------------------------------------------------------------|
D|-13-13~~---15-13-13~~----12-12-12-12/131313---131313---131313---13\-|
A|-13-13~~---15-13-13~~----12-12-12-12/131313---131313---131313---13\-|  
D|-13-13~~---15-13-13~~----12-12-12-12/131313---131313---131313---13\-|   

[Verse 1]
                (x7)
e|--------------------------------------------------|-----------------------|
B|--------------------------------------------------|-----------------------|
G|--------------------------------------------------|-----------------------|
D|--13-13-13-13-12-12-12-12-10-10-10-10-12-12-12-12-|-13~~-1313131313131313-|
A|--13-13-13-13-12-12-12-12-10-10-10-10-12-12-12-12-|-13~~-1313131313131313-|
D|--13-13-13-13-12-12-12-12-10-10-10-10-12-12-12-12-|-13~~-1313131313131313-|
     *  *  *  *  *  *  *  *  *  *  *  *  *  *  *  *

[Chorus 1]
e|------|---------------------|
B|------|---------------------| (x4)
G|------|---------------------|
D|--1010|-1088-866-688-81010--|
A|--1010|-1088-866-688-81010--|
D|--1010|-1088-866-688-81010--|

e|---------------------------|
B|---------------------------| (x4)
G|---------------------------|
D|--10101010-8888-6666-8888--|
A|--10101010-8888-6666-8888--|
D|--10101010-8888-6666-8888--|

e|-----------------------------------------------|
B|-----------------------------------------------|
G|----------------------------88888888-----------|
D|--1010101010101010-66666666-88888888-88888888x-|
A|--1010101010101010-66666666-66666666-88888888x-|
D|--1010101010101010-66666666----------88888888x-|

[Verse 2]
(Just Guitar 2 - Then..)
e|---------------------------------------------------|
B|---------------------------------------------------| (x2)
G|---------------------------------------------------|
D|--13-13-13-13-12-12-12-12-10-10-10-10-12-12-12-12--| 
A|--13-13-13-13-12-12-12-12-10-10-10-10-12-12-12-12--| 
D|--13-13-13-13-12-12-12-12-10-10-10-10-12-12-12-12--|
     *  *  *  *  *  *  *  *  *  *  *  *  *  *  *  *

[Pre-Chorus]
e|--------------------------------------------------------------------|
B|--------------------------------------------------------------------|
G|--------------------------------------------------------------------|
D|-13-13~~---15-13-13~~----12-12-12-12/131313---131313---131313---13\-|
A|-13-13~~---15-13-13~~----12-12-12-12/131313---131313---131313---13\-|  
D|-13-13~~---15-13-13~~----12-12-12-12/131313---131313---131313---13\-|

[Chorus 2]
e|---------------------------|
B|---------------------------| (x4)
G|---------------------------|
D|--10101010-8888-6666-8888--|
A|--10101010-8888-6666-8888--|
D|--10101010-8888-6666-8888--|

e|-----------------------------------------------|
B|-----------------------------------------------| (x5)
G|----------------------------88888888-----------|
D|--1010101010101010-66666666-88888888-88888888--|
A|--1010101010101010-66666666-66666666-88888888--|
D|--1010101010101010-66666666----------88888888--|

e|------------------------------------|----------------|
B|------------------------------------|----------------|
G|----------------------------88888888|-----10---------|
D|--1010101010101010-66666666-88888888|-8-8-10-8/13~~--|
A|--1010101010101010-66666666-66666666|-8-8-8--8/13~~--|
D|--1010101010101010-66666666---------|-8-8-8--8/13~~--|

(Guitar 2)
[Intro/Main Riff]
e|---------------------------------------------------|
B|---------------------------------------------------|
G|--8-88-10-1010-12h13h15p12\10---8-88-7-77-5-55-3~--|
D|---------------------------------------------------|
A|---------------------------------------------------| (x2)
D|---------------------------------------------------|

[Interlude Bit]
e|----------------------------------------------------------------|
B|--------------------------11------------------------------------|
G|--12----12----12-12-12----------12--10----10----10--7b888888br7-|
D|----8-8---8-8---------8-8---8-8---8---8-8---8-8---8-------------|
A|----------------------------------------------------------------|
D|----------------------------------------------------------------|

e|------------------------------------------------------------------|
B|------------------------------------------------------------------|
G|--12----12----12-------8h10/12\10p8p7--10----10----10--7b8888888--|
D|----8-8---8-8---8-8h10--------------------8-8---8-8---8-----------|
A|------------------------------------------------------------------|
D|------------------------------------------------------------------|

[Verse 1]
e|-----------------------------------|
B|------11--------11-------8-----6---|
G|----12--12----10--10----8-8---7-7--|
D|--13--------12--------10-----8-----|
A|-----------------------------------|
D|-----------------------------------| (x2)

e|-----------------------------------------------------------------------|
B|-----------------------------------------------------------------------|
G|--8-8-8-8-8-8-10-10--8-8-8-8-8-8-10-10--8-8-8-8-8-8-10-10--8~-88888888-|
D|-----------------------------------------------------------8~-88888888-|
A|-----------------------------------------------------------6~-66666666-|
D|-----------------------------------------------------------------------|
    * * * * * * *  *   * * * * * * *  *   * * * * * * *  * 

[Chorus 1]
e|-----|-----------------|
B|-----|-----------------| (x4)
G|--88-|-877-755-577-788-|
D|--xx-|-xxx-xxx-xxx-xxx-|
A|--66-|-655-533-355-566-|
D|-----|-----------------|

e|----------------------------------------------|
B|--16------16------16-----16-----18-18---18----|
G|----15-15---15-15---15-----15-15-----15---15--|
D|----------------------------------------------|
A|----------------------------------------------| (x4)
D|----------------------------------------------|

e|------------------------------------------------------------|
B|-----------------------------------------------------161616-|
G|--8-88-10-1010-12h13h15p12-10-1010-8-88-7-77-15-1515--------|
D|------------------------------------------------------------|
A|------------------------------------------------------------|
D|------------------------------------------------------------|

[Verse 2] 
e|----------------------|
B|----------------------| (x4)
G|---8-8-7-7-5-5-7-7----|
D|----8-8-8-8-8-8-8-8---|
A|----------------------|
D|----------------------|

[Pre-Chorus] (Same as interlude bit)
e|-----------------------------------------------------------------|
B|--------------------------11-------------------------------------|
G|--12----12----12-12-12----------12--10----10----10--7b888888br7--|
D|----8-8---8-8---------8-8---8-8---8---8-8---8-8---8--------------|
A|-----------------------------------------------------------------|
D|-----------------------------------------------------------------|

e|--------------------------------------------------------------------|
B|--------------------------------------------------------------------|
G|--12----12----12-------8h10/12\10p8p7--10----10----10--7b8888888----|
D|----8-8---8-8---8-8h10--------------------8-8---8-8---8-------------|
A|--------------------------------------------------------------------|
D|--------------------------------------------------------------------|

[Chorus 2]
e|-----------------------|
B|-----------------------| (x4)
G|--8888-7777-5555-7777--|
D|--xxxx-xxxx-xxxx-xxxx--|
A|--6666-5555-3333-5555--|
D|-----------------------|

e|----------------------------------------------|
B|--16------16------16-----16-----18-18---18----|
G|----15-15---15-15---15-----15-15-----15---15--|
D|----------------------------------------------|
A|----------------------------------------------| (x4)
D|----------------------------------------------|

e|--------------------------------------------------------|
B|-------------------------------------------------161616-|
G|--8-88-10-1010-12h13h15p12-10--8-88-7-77-15-1515--------|
D|--------------------------------------------------------|
A|--------------------------------------------------------|
D|--------------------------------------------------------|

e|----------------------------------------------------|-23~-| 
B|----------------------------------------------16----|-----|   
G|--8-88-10-1010-12h13h15p12-10--8-88-7-77-15-15---15-|-H8~-|
D|----------------------------------------------------|-----|
A|----------------------------------------------------|-----|
D|----------------------------------------------------|-----|



************************************

| /   Slide up
| \   Slide down
| ~   Vibrato
| x   Dead note
| h   Hammer-on
| p   Pull-off
| b   Bend
| br  Bend release

************************************
Suggest correction
comments
print report bad tab
5 comments total. Showing first comments.
0 reply
dash-rendar 80 Nov 19, 2012 02:28 AM

The way the lead guitar part is played involved an open E pedal tone, so they tuned down a half step. BUT your tab still works for people too lazy to tune down :P Good job

0 reply
alex94kumar 112 Dec 13, 2012 01:24 PM

Tune the guitar down and play it in open position, a lot easier than what's here

0 reply
exaxis 10 Jun 01, 2013 12:37 PM

The ending note on 16 is not a normal note; it's a fret harmonic.

guest
You may want to rate the tab now too:
select rating
Wanna post a correction for this tab? Suggest correction