Oops, an error
Loading. Please wait.

Stay Tab

version 1
version 1

Whole song

Interactive

6,817 views 21 this week
3 commentsread comments
1 2 3 4 5
x 5
add to favorites
launch autoscroll
font size
0
reset
how to read this tab
guitar tuner
Autoscroll
slow
fast
+/-
esc
set tempo
stop
Help us to improve Ultimate-Guitar.com Take our survey!
×
Author
Capo
1st fret
My second tab. All of the song stay it's pretty easy nothing challenging at all, pretty 
simple, standard tuning capo 1. Some parts are quieter than others and i added my own 
little bit in. My time for the song is against the official video clip 
http://www.youtube.com/watch?v=CAfNjdcgp4E

Everything is relative to the capo!

Piano 0:02 - 0:36
e|---------0----------0---------0---------0---------1---------1---|
B|-------1-1--------1-1-------1-1-------1-1-------1-1-------1-1---|
G|-----0---0------0---0-----2---2---------0-----2---2-----2---2---|
D|---2----------2---------2---------2---------3---------3---------|
A|-3----------3---------0---------0---0-----3---------3-----------|
E|----------------------------------------------------------------|

Piano 0:02 - 0:36
e|---------------------x2-----------------------------------------|
B|-------3-3-------3-3-x2-----------------------------------------|
G|-----4---4-----4---4-x2-----------------------------------------|
D|---5---------5-------x2-----------------------------------------|
A|-5---------5---------x2-----------------------------------------|
E|----------------------------------------------------------------|

Rhythm 0:36 - 0:52
e|-0-----1-----0---3---1-x2---------------------------------------|
B|-1-----1-----1---3---1-x2---------------------------------------|
G|-0-----2-----2---4---2-x2---------------------------------------|
D|-2-----3-----2---5---3-x2---------------------------------------|
A|-3-----3-----0---5---3-x2---------------------------------------|
E|-0-----1-----0---3---1-x2---------------------------------------|

Piano 0:45 - 0:52
e|-8---8-----8-----8-7-----7-5------------------------------------|
B|---8---8-----8-------8-6----------------------------------------|
G|---------5-----5------------------------------------------------|
D|----------------------------------------------------------------|
A|----------------------------------------------------------------|
E|----------------------------------------------------------------|

Lead 0:53 - 1:10
e|---0----1------0----------------------x2------------------------|
B|-1--------1------1------7/9-7/9-7-5---x2------------------------|
G|----------------------7-------------7-x2------------------------|
D|----------------------------------------------------------------|
A|----------------------------------------------------------------|
E|----------------------------------------------------------------|

Lead 1:10 - 1:28
e|---0----1------0----------x2------------------------------------|
B|-1--------1------1----3---x2------------------------------------|
G|------------------------4-x2------------------------------------|
D|----------------------------------------------------------------|
A|----------------------------------------------------------------|
E|----------------------------------------------------------------|

Lead 1:28 - 1:45
e|-0------1------0--------------------x2--------------------------|
B|---1------1------1------7/9-7/9-7-5-x2--------------------------|
G|----------------------7-------------x2--------------------------|
D|----------------------------------------------------------------|
A|----------------------------------------------------------------|
E|----------------------------------------------------------------|

Rhythm 1:45 - 1:56
e|-0-----1-----0---3---1-----0-----1------------------------------|
B|-1-----1-----1---3---1-----1-----1------------------------------|
G|-0-----2-----2---4---2-----0-----2------------------------------|
D|-2-----3-----2---5---3-----2-----3------------------------------|
A|-3-----3-----0---5---3-----3-----3------------------------------|
E|-0-----1-----0---3---1-----0-----1------------------------------|

Piano 1:58 - 2:00
e|-8-----8-7-----7-5----------------------------------------------|
B|---8-------8-6--------------------------------------------------|
G|-----5----------------------------------------------------------|
D|----------------------------------------------------------------|
A|----------------------------------------------------------------|
E|----------------------------------------------------------------|

Lead 2:02 - 2:10
e|----------------------------------------------------------------|
B|-17-17-17-17-17-17-17-17-20-20-20-20-18-18-18-18----------------|
G|-------------------------------------------------17-17-16-16-16-|
D|----------------------------------------------------------------|
A|----------------------------------------------------------------|
E|----------------------------------------------------------------|

Lead 2:02 - 2:10
e|----------------------------------------------------------------|
B|----------------------------------------------------------------|
G|-17-17-17-16-16-16-16-16pbr-------------------------------------|
D|----------------------------------------------------------------|
A|----------------------------------------------------------------|
E|----------------------------------------------------------------|

Lead 2:11 - 2:18
e|----------------------------------------------------------------|
B|-17-17-17-17-17-17-1-17-20-20-20-20-18-18-18-18-----------------|
G|-------------------------------------------------17-17-16-16-6--|
D|----------------------------------------------------------------|
A|----------------------------------------------------------------|
E|----------------------------------------------------------------|

Lead 2:11 - 2:18
e|----------------------------------------------------------------|
B|----------------------------------------------------------------|
G|-17-17-17-16-16-16pbr-------------------------------------------|
D|----------------------------------------------------------------|
A|----------------------------------------------------------------|
E|----------------------------------------------------------------|

Lead 2:20 - 2:36
e|-0------1------0----------x2------------------------------------|
B|---1------1------1----3---x2------------------------------------|
G|------------------------4-x2------------------------------------|
D|----------------------------------------------------------------|
A|----------------------------------------------------------------|
E|----------------------------------------------------------------|

Rhythm 2:20 - 2:36
e|----------------------------------------------------------------|
B|----------------------------------------------------------------|
G|-9-9-9-9-9-9-9-10-12-12-12-12-12-12-12-10-9-9-9-9-9-9-9-10-7-7-7|
D|-x-x-x-x-x-x-x-x--x--x--x--x--x--x--x--x--x-x-x-x-x-x-x-x--x-x-x|
A|-7-7-7-7-7-7-7-8--10-10-10-10-10-10-10-8--7-7-7-7-7-7-7-8--5-5-5|
E|----------------------------------------------------------------|

Rhythm 2:20 - 2:36
e|----------------------------------------------------------------|
B|----------------------------------------------------------------|
G|-7-7-7-7-7-x2---------------------------------------------------|
D|-x-x-x-x-x-x2---------------------------------------------------|
A|-5-5-5-5-5-x2---------------------------------------------------|
E|----------------------------------------------------------------|

Lead 2:36 - 2:53
e|-----------------------------------------------------------------|
B|-18/17-17-17-17-17-18-20-20-20-20-20-20-20-18-17-17-17-17-17-17--|
G|-----------------------------------------------------------------|
D|-----------------------------------------------------------------|
A|-----------------------------------------------------------------|
E|-----------------------------------------------------------------|

Lead 2:36 - 2:53
e|-----------------------------------------------------------------|
B|-17----------------------------x2--------------------------------|
G|----17-16-16-16-16-16-16-16-16-x2--------------------------------|
D|-----------------------------------------------------------------|
A|-----------------------------------------------------------------|
E|-----------------------------------------------------------------|

Lead 2:45 - 2:53 (Not in the song i just thought it sounded neat)
e|-----------------------------------------------------------------|
B|-17-20-17-20-(Repeat until chorus begins)------------------------|
G|-----------------------------------------------------------------|
D|-----------------------------------------------------------------|
A|-----------------------------------------------------------------|
E|-----------------------------------------------------------------|

Lead 2:54 - 3:01
e|----------------------------------------------------------------|
B|-17-17-17-17-17-17-17-17-20-20-20-20-18-18-18-18----------------|
G|-------------------------------------------------17-17-17-17-17-|
D|----------------------------------------------------------------|
A|----------------------------------------------------------------|
E|----------------------------------------------------------------|

Lead 2:54 - 3:01
e|----------------------------------------------------------------|
B|----------------------------------------------------------------|
G|-17-17-17-16-16pbr----------------------------------------------|
D|----------------------------------------------------------------|
A|----------------------------------------------------------------|
E|----------------------------------------------------------------|

Lead 3:02 - 3:10
e|----------------------------------------------------------------|
B|-17-17-17-17-17-17-17-17-20-20-20-20-18-18-18-18----------------|
G|-------------------------------------------------17-17-17-17-17-|
D|----------------------------------------------------------------|
A|----------------------------------------------------------------|
E|----------------------------------------------------------------|

Lead 3:02 - 3:10
e|----------------------------------------------------------------|
B|----------------------------------------------------------------|
G|-17-17-17-16pbr-16-16-16----------------------------------------|
D|----------------------------------------------------------------|
A|----------------------------------------------------------------|
E|----------------------------------------------------------------|

Lead 3:11 - 3:28
e|----------------------------------------------------------------|
B|-17-18-20-17-18-17-17-18-15--17-18-13-x2------------------------|
G|----------------------------------------------------------------|
D|----------------------------------------------------------------|
A|----------------------------------------------------------------|
E|----------------------------------------------------------------|

Rhythm 3:11 - 3:28
e|----------------------------------------------------------------|
B|----------------------------------------------------------------|
G|----------------------------------------------------------------|
D|------2---------2---------3---------3---------2---------2-------|
A|---3----3-----3---3-----3---3-----3---3-----0---0-----0---0-----|
E|-0--------0-0-------0-1-------1-1-------1-0-------0-0-------0---|

Rhythm 3:11 - 3:28
e|----------------------------------------------------------------|
B|----------------------------------------------------------------|
G|----------------------------------------------------------------|
D|-----5---------5---x2-------------------------------------------|
A|---5---5-----5---5-x2-------------------------------------------|
E|-3-------3-3-------x2-------------------------------------------|

Key
/   =Slide up
pbr =Prebend release
x   =Muted

If you are having any trouble listen closely to the song. If there is any errors 
leave a comment because it was done early in the moring and was rushed, have a nice day :D
Suggest correction
comments
print report bad tab
3 comments total.
0 reply
llamaofguitar 104 Feb 28, 2013 04:44 AM

Sorry for some errors im waiting for it to be re uploaded the only errors have to do with the chorus lead not being relative to the capo just play it a fret down :)

0 reply
llamaofguitar 104 Mar 04, 2013 12:43 AM

everything has been fixed now :)

0 reply
joshnametoolong 10 Aug 14, 2013 05:25 AM

There are some parts that are confusing, like the chorus and there after do you mind doing a vid or smth? I reeally wanna learn this song :) love mayday parade

guest
You may want to rate the tab now too:
select rating
Wanna post a correction for this tab? Suggest correction