Oops, an error
Loading. Please wait.

Still Breathing Tab

version 1
version 1

Whole song

Interactive

20,669 views 6 this week
3 commentsread comments
1 2 3 4 5
accurate
x 5
add to favorites
launch autoscroll
font size
0
reset
how to read this tab
guitar tuner
Autoscroll
slow
fast
+/-
esc
set tempo
stop
Help us to improve Ultimate-Guitar.com Take our survey!
×
Difficulty
novice
Eh..this is my first tab. :/
So yeah, don't be rude(:

-intro-

e|---------9----------------------------------------------|
B|--------------------------------------------------------|
G|-----------------1--------------------------------------| (x how many times)
D|--------------------3-4---------1---------3-4-3-1-3-1---|
A|---8---------4-------------4---------4------------------|
E|-6---9-6---2---2---------4---4-----4---4----------------|
                                                    Give me any reason. ..

-PreChorus-

e|--------------------------------|
B|--------------------------------|
G|--------------------------------|
D|--------------------------------|(x 2)
A|-44444444-66666666-888888888888-|
E|-22222222-44444444-666666666666-|
   ........ ........ ............
  Times racing. ..

e|------------------------------|
B|------------------------------|
G|------------------------------|
D|----------66666666------------|
A|-44444444-66666666------------|
E|-22222222-44444444------------|
  I'm still breathing.


-Chorus-

e|-----------------------------------------------------|
B|-----------------------------------------------------|
G|-666666666666----------------------------------------|
D|-666666666666-666666666666-888888888888-444444444444-|
A|-444444444444-666666666666-888888888888-444444444444-|
E|--------------444444444444-666666666666-222222222222-|
  It's hard to be a man. ..


e|------------------------------------------------------------------|
B|------------------------------------------------------------------|
G|-6666666666---8-8-8-8-8-8-8-8-8-8---10-10-10-10-10-10-10-10-10-10-|
D|-6666666666---x-x-x-x-x-x-x-x-x-x---x--x--x--x--x--x--x--x--x--x--|
A|-4444444444---6-6-6-6-6-6-6-6-6-6---8--8--8--8--8--8--8--8--8--8--|
E|------------------------------------------------------------------|
  Cause im standing here alone. ..

e|-------------------------------------|
B|-------------------------------------|
G|-------------------------------------|
D|44444444-66666666-44444444-66666666--|
A|44444444-66666666-44444444-66666666--|
E|22222222-44444444-22222222-44444444--|
 . ..Heart from beating. ..


(Repeat intro.)

(Repeat PreChorus)

(Repeat Chorus)

e|---------------|
B|---------------|
G|-6~------------|
D|-6~------------|
A|-4~------------|
E|---------------|


-Bridge-
(with the piano)

-Solo-

e|--------------------------------------------------------|
B|-11-------9---------------------------------------------|
G|----10-11----10-11-10-------------------11-13-10--------|
D|----------------------11-13----10-11-13-----------------|
A|--------------------------------------------------------|
E|--------------------------------------------------------|

e|------------11-0-9-0-8----------------------------------|
B|-11-------9------------7\9\11\13\14~--------------------|
G|----10-11-----------------------------------------------|
D|--------------------------------------------------------|
A|--------------------------------------------------------|
E|--------------------------------------------------------|

e|---------------|
B|---------------|
G|-6666666666666-|
D|-6666666666666-|
A|-4444444444444-|
E|---------------|

(Chorus)

End with:

e|---------------|
B|---------------|
G|-6~------------|
D|-6~------------|
A|-4~------------|
E|---------------|
Suggest correction new What's this?
You can suggest a correction to this tab. Community and Mods will review your correction and vote to approve or reject it.
comments
print report bad tab
3 comments total.
0 reply
Sc111832 17 wrote on February 15 2010, 08:24 pm

solo correction
-Solo-

e|--------------------------------------------------------|
B|-10b-------9--------------------------------------------|
G|----10-11----10-11-10-------------------11-13-10--------|
D|----------------------11-13----10-11-13-----------------|
A|----------------------------11--------------------------|
E|--------------------------------------------------------|

e|------------11---9---8-~--------------------------------|
B|-10b------9----9---9----7\9\11\13\14~-------------------|
G|----10-11-----------------------------------------------|
D|--------------------------------------------------------|
A|--------------------------------------------------------|
E|--------------------------------------------------------|

0 reply
lanomyster 24 wrote on February 16 2010, 07:33 pm

i play the intro/verse like this, i've got a pretty good ear too, and my guitar tuned down half a step.

eb|--------------------------------------|
Bb|--------------------------------------|
Gb|---0-12*------------------------------|
Db|--9--------5--7-5p4---0-2--0-2h3p2-0h2|
Ab|-7--------5-5--------0-0--0-----------|
Eb|--------------------------------------|

0 reply
nmastah3 447 wrote on January 17 2011, 06:49 pm

the tuning is drop c#. period. i dont know why everyone is doing standard 1 step down...

guest
You may want to rate the tab now too:
select rating
Please do not post tabs as comments. Select "correction" instead!