Oops, an error
Loading. Please wait.

The End Bass Tab

504 views 1 this week
no commentswrite comment
1 2 3 4 5
please rate
add to favorites
launch autoscroll
font size
0
reset
guitar tuner
Autoscroll
slow
fast
+/-
esc
set tempo
stop
Help us to improve Ultimate-Guitar.com Take our survey!
×
Author
Difficulty
Tuning
intermediate
C# G# C# F# A# D#
Band: Mayday Parade
Song: The End
Album: Anywhere But Here
Tuning: Drop C# (F#,C#,G#,C#)
Tabbed by jimmfoster :D

definitely my favourite song off this album. You can play it is Drop D but it's
way easier and sounds better in C#. I lean't this song off the guitar tab and seeing 
that there was no bass tab, I decided to figure out the rest of the song and upload one!

Intro:
-Silence-
Verse
Come in at 0.19
'so we drive...'
F#|-------------------------------------------------------------------------|
C#|-------------------------------------------------------------------------|
G#|-----------3-333-3\5----------555444h5---------3-333-3\5---------55555554|
C#|-/2-222-2/-----------5-555-5----------2-222-2/----------5-555-5----------|
           ^Jeremy quickly slides up just a bit
Chorus part 1
'how can you think...'
F#|-------------------------------------------------------------------------|
C#|-------------------------------------------------------------------------|
G#|---------23333333--------------------------23333333-------------/5555----|
C#|-2222222----------0000000000000020-2222222----------000000000000---------|
Chorus part 2
'when this is over...'
F#|-------------------------------------------------------------------------|
C#|-------------------------------------------------------------------------|
G#|----------------------------------3333333333333333----------555555575----|
C#|-555555555555575-0000000000000000------------------22222222--------------|
'innocence is falling...'
F#|-------------------------------------------------------------------------|
C#|-------------------------------------------------------------------------|
G#|------------------------/55555555-3333333333333333----------55555/17\5-3~|
C#|-555555555555575-00000000--------------------------22222222--------------|
Post Chorus:
-silence-
Verse 2 (similar to first verse but put some emphasis on the slides here)
'we tried to fight...'                         x2
F#|----------------------------------------------|
C#|----------------------------------------------|
G#|----------------------------------------------|
C#|-2-2-2-22/10-10-101010\5-5-555/12-1212-121212-|
                 the second time, play this
                            F#|------------------|
                            C#|------------------|
                            G#|------------------|
                            C#|-1212121214141616-|
'so it's time...'
F#|-------------------------------------------------------------------------|
C#|-------------------------------------------------------------------------|
G#|-----------3-333-3\5----------555444h5---------3-333-3\5---------55555554|
C#|-/2-222-2/-----------5-555-5----------2-222-2/----------5-555-5----------|

Repeat Chorus part 1 and 2.

Bridge:
'...end.'
F#|------------------|
C#|------------------|
G#|-3333333333333333-|
C#|------------------|
guitar Solo
(figure out the timing here,you don't need to play the upper octaves)   x2
F#|-----------------5----------------------------------------------------|
C#|----2-------2-------------------5-------5-----------------------------|
G#|--------------333--3-333-557----------------------/5555555544445------|
C#|-222--2-2222-----------------555--5-5555--00000000--------------------|
                                        the last time, play this at the end
                                           F#|---------------------------|
                                           C#|---------------------------|
                                           G#|-55555555/1717171717171717-|
                                           C#|---------------------------|
Repeat Chorus part 1 only

This is a different part 2 than the other
listen for the timing
'when this is over....'
F#|-------------------------------------------------------------------------|
C#|-------------------------------------------------------------------------|
G#|-------------------------------------------------------------------------|
C#|-2~----5~--7~--10~----12~--14~--5~----10~--9~--12~-----------------------|

Final Chorus
'innocence is falling...'
F#|-------------------------------------------------------------------------|
C#|-------------------------------------------------------------------------|
G#|-----------------/333333333333353--------------------------/555555575----|
C#|-2222222222222222-----------------555555555555-000000000000--------------|

Finish on:
|-----|
|-----|
|-----|
|-2~--|

Please rate! :D

| /  slide up
| \  slide down
| h  hammer-on
| p  pull-off
| ~  vibrato
| +  harmonic
| x  Mute note
Suggest correction
Give kudos to tab author, rate the tab!
1 2 3 4 5
comments
print report bad tab
guest
You may want to rate the tab now too:
select rating
Please do not post tabs as comments. Select "correction" instead!