Oops, an error
Loading. Please wait.

The End Tab

version 1
version 1

Whole song

5,800 views 12 this week
1 commentread comment
1 2 3 4 5
excellent!
x 6
add to favorites
launch autoscroll
font size
0
reset
how to read this tab
guitar tuner
Tab Pro tools
  • play this tab
  • loop segment
  • change instrument
  • show fretboard
  • metronome
Autoscroll
slow
fast
+/-
esc
set tempo
stop
Contributor
Difficulty
Tuning
intermediate
C# G# C# F# A# D#
Song: The End
Artist: Mayday Parade
Album: Anywhere But Here

Tuning:Drop C#

It can be played on Drop D, I'll be posting the D version later..
Though it sounds better and easier at C#, so here it is.. :3


Intro:
Guitar 1:
|---------------------------------------------------------------------|
|---------------------------------------------------------------------|
|-------0-----0---------0-----0---------0-----0---------0-----0-------|
|-----4-----4-----4---5-----5-----5---4-----4-----4---4-----4-----4---|
|---3-----3-----3---7-----7-----7---5-----5-----5---5-----5-----5-----|
|---------------------------------------------------------------------|

Verse:
Guitar 1:plays this all throughout verse..
|---------------------------------------------------------------------|
|---------------------------------------------------------------------|
|-------0-----0---------0-----0---------0-----0---------0-----0-------|
|-----4-----4-----4---5-----5-----5---4-----4-----4---4-----4-----4---|
|---3-----3-----3---7-----7-----7---5-----5-----5---5-----5-----5-----|
|---------------------------------------------------------------------|

Guitar 2: comes in at (0:19)
|---15~------14~------12~------10~---|
|------------------------------------|
|------------------------------------|
|------------------------------------| x2
|------------------------------------|
|------------------------------------|

Refrain:

Guitar 1:
|-----------------------------------------------------------------|
|-----------------------------------------------------------------|
|-----------------------------------------------------------------|
|---22222222--1010101010101010-12121212121212121212121212121212---| x2
|---22222222--1010101010101010-12121212121212121212121212121212---|
|---22222222--1010101010101010-12121212121212121212121212121212---|

Guitar 2:
|-----------------------------------------------------|
|------7-8~---8~-7~-------------7-8~---12~-10~-8~-7~--|
|----7--------------9~-7~-----7-----------------------|
|--9------------------------9-------------------------|
|-----------------------------------------------------|
|-----------------------------------------------------|

Chorus:

Guitar 1:
|--------------------------------------------------------------------|
|--------------------------------------------------------------------|
|--------------------------------------------9999999999-7777777777---|
|-5555555555-0000000000-10101010101010101010-9999999999-7777777777---|
|-5555555555-0000000000-10101010101010101010-7777777777-5555555555---|
|-5555555555-0000000000-10101010101010101010-------------------------|

Guitar 2:
|--------------------------|
|---------8---10---8-------|
|-------7---7----7---7-----|
|-----9--------------------|
|--------------------------|
|--------------------------|

Interlude:
Guitar 1:
|---------------------------------------------------------------------|
|---------------------------------------------------------------------|
|-------0-----0---------0-----0---------0-----0---------0-----0-------|
|-----4-----4-----4---5-----5-----5---4-----4-----4---4-----4-----4---|
|---3-----3-----3---7-----7-----7---5-----5-----5---5-----5-----5-----|
|---------------------------------------------------------------------|

Verse 2:
Guitar 1:
|---------------------------------------------------------------------|
|---------------------------------------------------------------------|
|-------0-----0---------0-----0---------0-----0---------0-----0-------|
|-----4-----4-----4---5-----5-----5---4-----4-----4---4-----4-----4---|
|---3-----3-----3---7-----7-----7---5-----5-----5---5-----5-----5-----|
|---------------------------------------------------------------------|

Guitar 2:
|---15~------14~------12~------10~---|
|------------------------------------|
|------------------------------------|
|------------------------------------|
|------------------------------------|
|------------------------------------|

Refrain:

Guitar 1:
|-----------------------------------------------------------------|
|-----------------------------------------------------------------|
|-----------------------------------------------------------------|
|---22222222--1010101010101010-12121212121212121212121212121212---| x2
|---22222222--1010101010101010-12121212121212121212121212121212---|
|---22222222--1010101010101010-12121212121212121212121212121212---|

Guitar 2:
|----------------------------------------------------|
|------6-7~---7~-6~-------------6-7~---11~-9~-7~-6~--|
|----8--------------8~-6~-----8----------------------|
|--9------------------------9------------------------|
|----------------------------------------------------|
|----------------------------------------------------|

Chorus:

Guitar 1:
|--------------------------------------------------------------------|
|--------------------------------------------------------------------|
|--------------------------------------------9999999999-7777777777---|
|-5555555555-0000000000-10101010101010101010-9999999999-7777777777---|
|-5555555555-0000000000-10101010101010101010-7777777777-5555555555---|
|-5555555555-0000000000-10101010101010101010-------------------------|

Guitar 2:
|--------------------------|
|---------8---10---8-------|
|-------7---7----7---7-----|
|-----9--------------------|
|--------------------------|
|--------------------------|

Bridge:

Guitar 1:
|------------------------------------------------------|
|------------------------------------------------------|
|------------------------------------------------------|
|-2222222222-10101010101010101010-5555555555-000000000-|
|-2222222222-10101010101010101010-5555555555-000000000-|
|-2222222222-10101010101010101010-5555555555-000000000-|

Guitar 2:
|--------------------------|
|---------8---10---8-------|
|-------7---7----7---7-----|
|-----9--------------------|
|--------------------------|
|--------------------------|

Solo:Still missing parts here.. To be updated later..
 ------------------------------------------------------------------------------------------------|
 ---------------------------------------/15-12h13h15-13-12-----12h13h15-12b12----12-10-----------|
 -1212-11-12~-12h14h15-14-12~----1212-11-----------------------------------------------12-11-12--|
 ------------------------------------------------------------------------------------------------|
 ------------------------------------------------------------------------------------------------|
 ------------------------------------------------------------------------------------------------|

This part still unfigured out..


 ------------------------------------------------------------------------------------------------|
 ---------------------------------------/15-12h13h15-13-12-----12h13h15-12b12----12-10-----------|
 -1212-11-12~-12h14h15-14-12~----1212-11-----------------------------------------------12-11-12--|
 ------------------------------------------------------------------------------------------------|
 ------------------------------------------------------------------------------------------------|
 ------------------------------------------------------------------------------------------------|

Another part of solo missing..

It's still a rough tab, plenty parts missing.. I'll update later.. :3

Outro:
|--------------------------|
|---------8---10---8-------|
|-------7---7----7---7-----| repeat until fade..
|-----9--------------------|
|--------------------------|
|--------------------------|
comments
print report bad tab
1 comment total.
0 reply
xMCR.for.Lifex wrote on January 7 2016, 06:15 pm

please update the solo!!

I want to post or [tab]
guest
You may want to rate the tab now too:
select rating
Please do not post tabs as comments. Select "correction" instead!