Oops, an error
Loading. Please wait.

The Silence Bass Tab

version 1
version 1

Whole song

Interactive

1,427 views 1 this week
no commentswrite comment
1 2 3 4 5
please rate
add to favorites
launch autoscroll
font size
0
reset
guitar tuner
Autoscroll
slow
fast
+/-
esc
set tempo
stop
Help us to improve Ultimate-Guitar.com Take our survey!
×
Difficulty
Tuning
novice
D A D G B E
Tabbed By : me......first tab i think its right i listened to live videos pretty sure its right
e-mail: tyler_jacoby2@yahoo.com (feel free to tell me any mistakes)

  ***NOTE*** i didnt put a certain amount of notes...i just threw them in there so you 
have to figure that part out. :D

Tuning: Drop D

    Intro (wait till very end of intro then do)
G|---------------------------------------------------------------------------|
D|---------------------------------------------------------------------------|
A|---------------------------------------------------------------------------|
D|----------------------------------------------------------------------7/---|

    intro pt. 2
G|---------------------------------------------------------------------------|
D|---------------------------------------------------------------------------|
A|-22222222222---------------------------------------------------------------|
D|-------------5555555555555-------------------------------------------------|

    Verse
G|------------------------------------------------------------------------------|
D|------------------------------------------------------------------------------|
A|-22222222222------------------------------------------------------------------|
D|-------------555555555555-2222222222222-555555555555^-------------------------|

     Interlude
G|---------------------------------------------------------------------------|
D|---------------------------------------------------------------------------|
A|-222222-555555-------------------------------------------------------------|
D|---------------5555555555555555--------------------------------------------|
    Do Verse Again then

    pre-chorus
G|---------------------------------------------------------------------------|
D|---------------------------------------------------------------------------|
A|-22222222222---------------------------------------------------------------|
D|-------------555555555555-2222222222222-xx---------------------------------|

   chorus
G|---------------------------------------------------------------------------------------|
D|---------------------------------------------------------------------------------------|
A|---------------------------------------------------------------------------------------|
D|-555555-777777-9999-101010-11-11-11-121212-55555555-222222222-99999999-141414-121212---|

    chorus cont.
G|---------------------------------------------------------------------------|
D|---------------------------------------------------------------------------|
A|---------------------------------------------------------------------------|
D|-22222-000000-555555-222222-9999999-77777777-555555-7~---------------------|

   (Intro pt. 2 Again)
   (verse again [no vibrato this time])
   (interlude again)
   (pre chorus again)
   (chorus again [last 7 play multiple times *777777*])

   Bridge pt.1

G|---------------------------------------------------------------------------|
D|---------------------------------------------------------------------------|
A|---------------------------------------------------------------------------|
D|-999999-1212121212-77-5555555-999999-12121212------------------------------|

   Bridge pt.2
G|---------------------------------------------------------------------------|
D|---------------------------------------------------------------------------|
A|-22-22-22-22---------------------------------------------------------------|
D|-------------55-55-55-55-22-22-22-22-55-55-77-77---------------------------|

   Bridge pt. 3
G|---------------------------------------------------------------------------|
D|---------------------------------------------------------------------------|
A|-22222222------------------------------------------------------------------|
D|----------555555555-22222222-5555-777777-----------------------------------|

   (pre chorus again)
   (chorus again)
   (interlude)x2

    Outro
G|---------------------------------------------------------------------------|
D|---------------------------------------------------------------------------|
A|---------------------------------------------------------------------------|
D|-999999-12121212-77-5~-----------------------------------------------------|


^ - bend string
~ - let ring
Suggest correction
Give kudos to tab author, rate the tab!
1 2 3 4 5
comments
print report bad tab
guest
You may want to rate the tab now too:
select rating
Please do not post tabs as comments. Select "correction" instead!