Oops, an error
Loading. Please wait.

The Silence Tab

version 1
version 1

Intro

Whole song

Interactive

14,380 views 1 this week
4 commentsread comments
1 2 3 4 5
accurate
x 5
add to favorites
launch autoscroll
font size
0
reset
how to read this tab
guitar tuner
Tab Pro tools
  • play this tab
  • loop segment
  • change instrument
  • show fretboard
  • metronome
×
Best way to learn
"The Silence"
Autoscroll
slow
fast
+/-
esc
set tempo
stop
Contributor
Difficulty
|------------------------------|
|--0-0-0-3-2-3-2-3-------3-2---|
|------------------2-2-2-----2-|
|------------------------------|
|------------------------------|
|------------------------------|x4
the song plays that and the chords are A B C# and D
this intro is repeated several times throughout the song, usually just repeating x2 or x4
towards the end play the chords in the order C# A B D
you can figure it out, it's pretty easy
this is my first tab so please rate and comment :)
comments
print report bad tab
4 comments total. Showing first comments.
0 reply
n.q.n wrote on September 6 2009, 03:55 am

what tuning is it?

0 reply
DrummingManiac1 wrote on October 4 2009, 12:47 pm

|--------------------------------|
B|--0-0-0-3-2-3-2-3-------3-2-0---|
G|------------------2-2-2-------2-|
|--------------------------------|
|--------------------------------|
|--------------------------------|x4

Great tab. I was really surprised one was up for this. Try the open B on the end and see how it sounds.

0 reply
Bair wrote on October 6 2009, 07:08 am

This is basically the main riff and a Chords tab just with awful formatting. its all correct but could have been written out better.

I want to post or [tab]
guest
You may want to rate the tab now too:
select rating
Please do not post tabs as comments. Select "correction" instead!